Your One-Stop Source For
Music Lyrics
Bass and Guitar Tabs
and More...
Music Lyrics Bass and Guitar Tabs

 

The Tabs Are Below

Learn To Read Tab
Chords Handbook
Corrections & Additions
Get Official Tab
Linkin Park tabs @ 911Tabs

Dirt Off Your Shoulder/Lying from You

 

Verse (Jay-Z)

Eb|--------------------------------------------------------------------------|

Bb|--------------------------------------------------------------------------|

Gb|--------------------------------------------------------------------------|

Db|2--2-2----|7--7-7----0-0--0-0-0-0|2--2-2----|7-7-7-7-7--0-0--0-0-0-0|-----|

Ab|2--2-2----|5--5-5----0-0--0-0-0-0|2--2-2----|5-5-5-5-5--0-0--0-0-0-0|-----|

Db|2--2-2----|5--5-5----0-0--0-0-0-0|2--2-2----|5-5-5-5-5--0-0--0-0-0-0|-----|

 

Eb|--------------------------------------------------------------------------|

Bb|--------------------------------------------------------------------------|

Gb|--------------------------------------------------------------------------|

Db|2--2-2----|7--7-7----0-0--0-0-0-0|----------------------------------------|

Ab|2--2-2----|5--5-5----0-0--0-0-0-0|----------------------------------------|

Db|2--2-2----|5--5-5----0-0--0-0-0-0|----------------------------------------|

Repeat this 5 times

 

Eb|--------------------------------------------------------------------------|

Bb|--------------------------------------------------------------------------|

Gb|--------------------------------------------------------------------------|

Db|7--7-7----|---------------------------------------------|x-x-x-x|---------|

Ab|5--5-5----|---------------------------------------------|x-x-x-x|---------|

Db|5--5-5----|---------------------------------------------|x-x-x-x|---------|

[I come running back n****, cuz I'm straight with the Roc]

 

Repeat 2nd line of Verse (Jay-Z) 4 times

Repeat 1st line of Verse (Jay-Z)

 

Eb|--------------------------------------------------------------------------|

Bb|--------------------------------------------------------------------------|

Gb|--------------------------------------------------------------------------|

Db|2--2-2----|7--7-7----0-0--0-0-0-0|2--2-2----|7--7-7----|------------------|

Ab|2--2-2----|5--5-5----0-0--0-0-0-0|2--2-2----|5--5-5----|------------------|

Db|2--2-2----|5--5-5----0-0--0-0-0-0|2--2-2----|5--5-5----|------------------|

 

Repeat 2nd line of Verse (Jay-Z) twice

 

Verse (Linkin Park)

Eb|--------------------------------------------------------------------------|

Bb|--------------------------------------------------------------------------|

Gb|--------------------------------------------------------------------------|

Db|2--2-2----|7--7-7----0-0--0-0-0-0|2--2-2----|7--7-7----0-0--0-0-0-0|------|

Ab|2--2-2----|5--5-5----0-0--0-0-0-0|2--2-2----|5--5-5----0-0--0-0-0-0|------|

Db|2--2-2----|5--5-5----0-0--0-0-0-0|2--2-2----|5--5-5----0-0--0-0-0-0|------|

Repeat this 1 time

 

Eb|--------------------------------------------------------------------------|

Bb|--------------------------------------------------------------------------|

Gb|--------------------------------------------------------------------------|

Db|2--2-2----|7--7-7----0-0--0-0-0-0|2--2-2----|7-7-7-7-7-7-7--7-7-7-7|------|

Ab|2--2-2----|5--5-5----0-0--0-0-0-0|2--2-2----|5-5-5-5-5-7-7--7-7-7-7|------|

Db|2--2-2----|5--5-5----0-0--0-0-0-0|2--2-2----|5-5-5-5-5-7-7--7-7-7-7|------|

[Trying to bend the....] [Lying my way from.....]

 

Chorus (Linkin Park)

Eb|--------------------------------------------------------------------------|

Bb|--------------------------------------------------------------------------|

Gb|----11-11-11-11-11-7-7-7-7-9-9-9|-------------------------|---------------|

Db|2-2-----------------------------|7-7-7-7-7-7--0-0--0-0-0-0|---------------|

Ab|2-2--9--9--9--9--9-5-5-5-5-7-7-7|5-5-5-5-5-5--0-0--0-0-0-0|---------------|

Db|2-2-----------------------------|5-5-5-5-5-5--0-0--0-0-0-0|---------------|

(These are 11s, not 1s)

 

Eb|--------------------------------------------------------------------------|

Bb|--------------------------------------------------------------------------|

Gb|------11-11-11-11-11-7-7-7-7-9-9-9|-------------------------|-------------|

Db|12-12-----------------------------|7-7-7-7-7-7--0-0--0-0-0-0|-------------|

Ab|10-10--9--9--9--9--9-5-5-5-5-7-7-7|7-7-7-7-7-7--0-0--0-0-0-0|-------------|

Db|10-10-----------------------------|7-7-7-7-7-7--0-0--0-0-0-0|-------------|

Repeat Chorus, but the last bar goes....

 

Eb|--------------------------------------------------------------------------|

Bb|--------------------------------------------------------------------------|

Gb|--------------------------------------------------------------------------|

Db|7-7-7-7-7-7--7-7--7-7-7-7|7-7-7-7-7-7--0-0--x-x-x-x|----------------------|

Ab|7-7-7-7-7-7--7-7--7-7-7-7|7-7-7-7-7-7--0-0--x-x-x-x|----------------------|

Db|7-7-7-7-7-7--7-7--7-7-7-7|7-7-7-7-7-7--0-0--x-x-x-x|----------------------|

 

Bridge (Linkin Park)

Eb|--------------------------------------------------------------------------|

Bb|--------------------------------------------------------------------------|

Gb|--------------------------------------------------------------------------|

Db|0-22-1-0-3-2-1-0-66|0-22-1-0-3-2-1-0-66|----------------------------------|

Ab|0-22-1-0-3-2-1-0-66|0-22-1-0-3-2-1-0-66|----------------------------------|

Db|0-22-1-0-3-2-1-0-66|0-22-1-0-3-2-1-0-66|----------------------------------|

(These are 2s and 6s, not 22s and 66s)

 

Eb|--------------------------------------------------------------------------|

Bb|--------------------------------------------------------------------------|

Gb|--------------------------------------------------------------------------|

Db|0-22-1-0-3-2-1-0-66|0-22-1-0-3-2-1-x-x-x-x|-------------------------------|

Ab|0-22-1-0-3-2-1-0-66|0-22-1-0-3-2-1-x-x-x-x|-------------------------------|

Db|0-22-1-0-3-2-1-0-66|0-22-1-0-3-2-1-x-x-x-x|-------------------------------|

 

Repeat Bridge

Repeat Chorus, but the last bar goes....

 

Eb|--------------------------------------------------------------------------|

Bb|--------------------------------------------------------------------------|

Gb|--------------------------------------------------------------------------|

Db|7-7-7-7-7-7--7-7--7-7-7-7|7-7-7-7-7-7--0-0-x-x-0|-------------------------|

Ab|7-7-7-7-7-7--7-7--7-7-7-7|7-7-7-7-7-7--0-0-x-x-0|-------------------------|

Db|7-7-7-7-7-7--7-7--7-7-7-7|7-7-7-7-7-7--0-0-x-x-0|-------------------------|

END Dirt Off Your Shoulder/Lying from You

 

Return to my Linkin Park tabs page

The Tablature is Copyright its respective owners.

Sign Up For My Newsletter
Subscribe | Unsubscribe

Site Map | Disclaimer | Privacy Policy | Media Kit | Submissions/Corrections

Website © 2000-2014 mattsmusicpage.com. All rights reserved.

Legal & DMCA: Matt's Music Page has been providing lyrics and tabs in a legal way, paying royalties each year to a few organizations. Then, all lyrics and tabs were removed from the site. Now, there's a new owner to the site, which purchased it August 26, 2014, and he is in negotiation to obtain licensing from BMI at the moment. If you have a specific DMCA request -- please do not hesitate to contact me via the contact button on top. I will do my very best to keep this site fully legal.

Get our toolbar!