Your One-Stop Source For
Music Lyrics
Bass and Guitar Tabs
and More...
Music Lyrics Bass and Guitar Tabs

 

The Tabs Are Below

Learn To Read Tab
Chords Handbook
Corrections & Additions
Get Official Tab
Linkin Park tabs @ 911Tabs

Song 7:

Title:By Myself

Tunning:Dropped D one half step down

C# G# C# F# A# D#

 

x|------------------|x

x|------------------|x

x|------------------|x

x|----------7-7--9*-|x <--4 times

x|----------7-7-----|x

x|-1-1-1-1--7-7-----|x

 

and right after the last time....

x|---------|x

x|---------|x

x|---------|x

x|---------|x

x|---------|x

x|-1-1-1-1-|x

 

There is no guitar part in the verse but may want to play the background soft sounds.

x|------------------------|x x|---------|x

x|------------------------|x x|---------|x

x|-5---4---7---5---4/5----|x <---Let the notes ring x|---------|x

x|------------------------|x x|-1-1-1-1-|x

x|------------------------|x Play this between 2nd & 3rd time---->x|-1-1-1-1-|x

x|------------------------|x x|-1-1-1-1-|x

 

Pre-Chorus:

x|------------------|x

x|------------------|x

x|------------------|x

x|----------7-7--9*-|x <--4 times

x|----------7-7-----|x

x|-1-1-1-1--7-7-----|x

 

Chorus:

x|------------------|x

x|------------------|x

x|------------------|x <---play four times

x|7-7-7---3-3-3---0-|x

x|7-7-7---3-3-3---0-|x

x|7-7-7-7-3-3-3-3-0-|x

 

Verse

Pre-Chorus

Chorus

 

Bridge

x|----------------|x

x|----------------|x

x|----------------|x

x|---------7------|x <--8 times

x|---------7------|x

x|-1-1-1-1/7------|x

 

Intro

Pre-Chorus

Chorus(x3)

Return to my Linkin Park tabs page

The Tablature is Copyright its respective owners.

Sign Up For My Newsletter
Subscribe | Unsubscribe

Site Map | Disclaimer | Privacy Policy | Media Kit | Submissions/Corrections

Website © 2000-2014 mattsmusicpage.com. All rights reserved.

Legal & DMCA: Matt's Music Page has been providing lyrics and tabs in a legal way, paying royalties each year to a few organizations. Then, all lyrics and tabs were removed from the site. Now, there's a new owner to the site, which purchased it August 26, 2014, and he is in negotiation to obtain licensing from BMI at the moment. If you have a specific DMCA request -- please do not hesitate to contact me via the contact button on top. I will do my very best to keep this site fully legal.

Get our toolbar!

 

® Elvis Presley Figure with Bars & Vinyl Record Stage
$23.99
® Elvis Presley Figure with Bars & Vinyl Record Stage picture


THE LONGINES SYMPHONETTE "SENTIMENTAL JOURNEY" VINTAGE VINYL ALBUM RECORD BOWL
$19.99
 THE LONGINES SYMPHONETTE


African Ghana Medley Vinyl Phono Record Beads (8mm) Ghana
$15.0
African Ghana Medley Vinyl Phono Record Beads (8mm)  Ghana picture


African Yellow Vinyl Phono Record Beads (6mm) Ghana
$12.0
African Yellow Vinyl Phono Record Beads (6mm)  Ghana picture


African Vintage Vinyl Phono Record Beads (7mm - Set of 4) Ghana
$69.0
African Vintage Vinyl Phono Record Beads (7mm - Set of 4)  Ghana picture