Your One-Stop Source For
Music Lyrics
Bass and Guitar Tabs
and More...
>Music Lyrics Bass and Guitar Tabs

 

The Linkin Park Bass Tabs Are Below

Learn To Read Tab
Chords Handbook
Corrections & Additions
Get Official Tab
Linkin Park tabs @ 911Tabs

This is after the last note from the piano.

 

Verse 1

g-------------------------------------------------------|

d-------------------------------------------------------| ( x3)

a-3-3-2-0-2-0---3-3-5-7-5-3---2-2-0---------------------|

e-----------------------------------3-5-3---2-2-3-5-3-5-|

 

 

Pre Chorus:

 

g------------------------------------------------------|

d------------------------------------------------------|

a-------------------------5-5-5-5-5-5-5-5--------------|

e-1-1-1-1-1-1-1-1-1-1-1-1------------------------------|

 

1 + 2 + 3 + 4 + 1 + 2 + 3 + 4 + 1 + 2 +

 

chorus:

g-----------------------------------------------------------------|

d-----------------------------------------------------------------|

a-----------------------------------------------------------------|

e-5-5-5-5-5-5-5-5-5-5-5-5-5-5-5-5-3-3-3-3-3-3-3-3-0-0-0-0-0-0-0-0-|

 

 

g---------------------------------------------------|

d---------------------------------------------------|

a-----------------3-3-3-3-3-3-3-3-------------------|

e-1-1-1-1-1-1-1-1-----------------3-3-3-3-3-3-3-3-0-|

 

 

Verse 2

g-------------------------------------------------------|

d-------------------------------------------------------| ( x3)

a-3-3-2-0-2-0---3-3-5-7-5-3---2-2-0---------------------|

e-----------------------------------3-5-3---2-2-3-5-3-5-|

 

 

 

Pre Chorus:

 

g------------------------------------------------------|

d------------------------------------------------------|

a-------------------------5-5-5-5-5-5-5-5--------------|

e-1-1-1-1-1-1-1-1-1-1-1-1------------------------------|

 

1 + 2 + 3 + 4 + 1 + 2 + 3 + 4 + 1 + 2 +

 

chorus:

g-----------------------------------------------------------------|

d-----------------------------------------------------------------|

a-----------------------------------------------------------------|

e-5-5-5-5-5-5-5-5-5-5-5-5-5-5-5-5-3-3-3-3-3-3-3-3-0-0-0-0-0-0-0-0-|

 

 

g-----------------------------------------------------------------|

d-----------------------------------------------------------------|

a-----------------3-3-3-3-3-3-3-3---------------------------------|

e-1-1-1-1-1-1-1-1-----------------3-3-3-3-3-3-3-3-0-0-0-0-0-0-0-0-|

 

 

Chorus #2 is played two times

 

Guitar solo break:

 

g-----------------------------------------------------------------|

d-----------------------------------------------------------------|

a-0-0-0-0-0-0-0-0-3-3-3-3-3-3-3-3-----------------5-5-5-5-5-5-5-5-|

e---------------------------------3-3-3-3-3-3-3-3-----------------|

 

This chorus is played right after

"It's in the blackened bones"

 

g-----------------------------------------------------------------|

d-----------------------------------------------------------------|

a-----------------------------------------------------------------|

e-5-5-5-5-5-5-5-5-5-5-5-5-5-5-5-5-3-3-3-3-3-3-3-3-0-0-0-0-0-0-0-0-|

 

 

g-----------------------------------------------------------------|

d-----------------------------------------------------------------|

a-----------------3-3-3-3-3-3-3-3---------------------------------|

e-1-1-1-1-1-1-1-1-----------------3-3-3-3-3-3-3-3-0-0-0-0-0-0-0-0-|

 

This is played twice as well.

And the song is done!

 

Reletively easy, enjoy.

Return to my Linkin Park Bass Tabs page

The Tablature is Copyright its respective owners.

Sign Up For My Newsletter
Subscribe | Unsubscribe

Site Map | Disclaimer | Privacy Policy | Media Kit | Submissions/Corrections

Website © 2000-2014 mattsmusicpage.com. All rights reserved.

Legal & DMCA: Matt's Music Page has been providing lyrics and tabs in a legal way, paying royalties each year to a few organizations. Then, all lyrics and tabs were removed from the site. Now, there's a new owner to the site, which purchased it August 26, 2014, and he is in negotiation to obtain licensing from BMI at the moment. If you have a specific DMCA request -- please do not hesitate to contact me via the contact button on top. I will do my very best to keep this site fully legal.

Get our toolbar!

 

Corona Extra ~ Wood I Phone Amplifier ~ Corona Extra Collectible
$19.99
Corona Extra ~ Wood I Phone Amplifier ~ Corona Extra Collectible picture


Barrett AN/PIQ-5 Military Bull Horn PA Speaker Amplifier w/ Original Mic & Case
$129.5
Barrett AN/PIQ-5 Military Bull Horn PA Speaker Amplifier w/ Original Mic & Case picture


Chicboom Keychain Speaker-NIP-2 Watt Amplified Speaker-3.5mm Stereo Jack
$10.0
Chicboom Keychain Speaker-NIP-2 Watt Amplified Speaker-3.5mm Stereo Jack picture


SAMS PHOTOFACT MANUAL & SCHEMATIC JERROLD PILOT MODEL 200 AMPLIFIER
$9.99
SAMS PHOTOFACT MANUAL & SCHEMATIC JERROLD PILOT MODEL 200 AMPLIFIER   picture


SAMS PHOTOFACT FOLDER MANUAL & SCHEMATIC AMPLIFIER BOGEN MODEL DS265 DS 265
$9.99
SAMS PHOTOFACT FOLDER MANUAL & SCHEMATIC AMPLIFIER BOGEN MODEL DS265 DS 265 picture