Your One-Stop Source For
Music Lyrics
Bass and Guitar Tabs
and More...
Music Lyrics Bass and Guitar Tabs

 

The Tabs Are Below

Learn To Read Tab
Chords Handbook
Corrections & Additions
Get Official Tab
Linkin Park tabs @ 911Tabs

Band: Linkin Park

Song: Pushing me away

Album: Hybrid Theory

Tabber: RedoX

 

Intro/chorus

G|--------------------------------------------------------------

D|--------------------------------------------------------------

A|-------------1-11-11111h3------------000-2222h4---------------

E|-0-00-000-00---------------33333333---------------------------

 

verse/pre-chorus

G|--------------------------------------------------------------

D|--------------------------------------------------------------

A|-----------0-00-00-----------0-00-0-2-22/4--------------------

E|-0-00-00------------3-33-3-3----------------------------------

 

as simple as that, really easy to play and really good when u listen to it.

 

 

 

 

Return to my Linkin Park bass tabs page

The Tablature is Copyright its respective owners.

Sign Up For My Newsletter
Subscribe | Unsubscribe

Site Map | Disclaimer | Privacy Policy | Media Kit | Submissions/Corrections

Website © 2000-2014 mattsmusicpage.com. All rights reserved.

Legal & DMCA: Matt's Music Page has been providing lyrics and tabs in a legal way, paying royalties each year to a few organizations. Then, all lyrics and tabs were removed from the site. Now, there's a new owner to the site, which purchased it August 26, 2014, and he is in negotiation to obtain licensing from BMI at the moment. If you have a specific DMCA request -- please do not hesitate to contact me via the contact button on top. I will do my very best to keep this site fully legal.

Get our toolbar!