Your One-Stop Source For
Music Lyrics
Bass and Guitar Tabs
and More...
Music Lyrics Bass and Guitar Tabs

 

The Tabs Are Below

Learn To Read Tab
Chords Handbook
Corrections & Additions
Get Official Tab
Lenny Kravitz tabs @ 911Tabs

Lenny Kravitz – Stillness Of Heart

Tabbed by: sinniecoyote

 

 

Intro

G|-----------------------------------------------------|

D|-----------------------------------------------------|

A|-----------------------------------------------------|

E|-1-3-33-33-33-1-3-33-33-33-1-3-33-33-33-1-3-33-33-33-|

 

Verse 1

G|-----------------------------------------------------|

D|-----------------------------------------------------|

A|-----------------------------------------------------|

E|-1-3-33-33-33-1-3-33-33-33-1-3-33-33-33-1-3-33-33-33-|

 

G|-----------------------------------------------------|

D|-----------------------------------------------------|

A|---8-88-88-88-88-88-88-88-8-6-66-66-66-66-66-66-66-6-|

E|-1/--------------------------------------------------|

 

Chorus 1

G|---------------------10-------10-------------------------------------|

D|---------------------------------------------------------------------|

A|-----------------8-8----8-8-8----8-----------------6-6-6-6-6-6-6-6p5-|

E|-6-6-6-6-6-6-6-6-------------------8-8-8-8-8-8-8-9-------------------|

 

G|---------------------10-------10--------------------|

D|----------------------------------------------------|

A|-----------------8-8----8-8-8----8---------------6--|

E|-6-6-6-6-6-6-6-6-------------------8-8-8-8-8-8-9----|

 

Verse 2

G|---------------------------|

D|---------------------------|

A|---------------------------|

E|-1-3-33-33-33-1-3-33-33-33-|

 

G|-----------------------------------------------------|

D|-----------------------------------------------------|

A|-----------------------------------------------------|

E|-1-3-33-33-33-1-3-33-33-33-1-3-33-33-33-1-3-33-33-33-|

 

G|-----------------------------------------------------|

D|-----------------------------------------------------|

A|---8-88-88-88-88-88-88-88-8-6-66-66-66-66-66-66-66-6-|

E|-1/--------------------------------------------------|

 

Chorus 2

G|---------------------10-------10-------------------------------------|

D|---------------------------------------------------------------------|

A|-----------------8-8----8-8-8----8-----------------6-6-6-6-6-6-6-6p5-| X3

E|-6-6-6-6-6-6-6-6-------------------8-8-8-8-8-8-8-9-------------------|

 

G|---------------------10-------10-----------------------------------|

D|-------------------------------------------------------------------|

A|-----------------8-8----8-8-8----8-----------------6-6-6-6-6-6-6-6-|

E|-6-6-6-6-6-6-6-6-------------------8-8-8-8-8-8-8-9-----------------|

 

Bridge

G|---------------------------------|

D|---------------------------------|

A|-3-3-3-3-3-3-3-3-6-6-6-6-6-6-6-6-| X3

E|---------------------------------|

 

G|---------------------------------|

D|---------------------------------|

A|-8-8-8-8-8-8-8-8-8-8-8-8\--------|

E|-------------------------1-1-1-2-|

 

 

 

Solo Guitar Part

G|----------------------------------------------------|

D|----------------------------------------------------|

A|----------------------------------------------------|

E|-3-33-33-33-1-3-33-33-33-1-3-33-33-33-1-33-33-33-45-|

 

Chorus 3 (fade out)

G|---------------------10-------10-------------------------------------|

D|---------------------------------------------------------------------|

A|-----------------8-8----8-8-8----8-----------------6-6-6-6-6-6-6-6p5-|

E|-6-6-6-6-6-6-6-6-------------------8-8-8-8-8-8-8-9-------------------|

(play this till the end)

 

 

Return to my to my Lenny Kravitz bass tabs page

The Tablature is Copyright its respective owners.

Sign Up For My Newsletter
Subscribe | Unsubscribe

Site Map | Disclaimer | Privacy Policy | Media Kit | Submissions/Corrections

Website © 2000-2014 mattsmusicpage.com. All rights reserved.

Legal & DMCA: Matt's Music Page has been providing lyrics and tabs in a legal way, paying royalties each year to a few organizations. Then, all lyrics and tabs were removed from the site. Now, there's a new owner to the site, which purchased it August 26, 2014, and he is in negotiation to obtain licensing from BMI at the moment. If you have a specific DMCA request -- please do not hesitate to contact me via the contact button on top. I will do my very best to keep this site fully legal.

Get our toolbar!