Your One-Stop Source For
Music Lyrics
Bass and Guitar Tabs
and More...
Music Lyrics Bass and Guitar Tabs

 

The Tabs Are Below

Learn To Read Tab
Chords Handbook
Corrections & Additions
Get Official Tab
Lenny Kravitz tabs @ 911Tabs

Lenny Kravitz – Heaven Help

Tabbed by: sinniecoyote

 

 

Intro

G|------------------------------|

D|------------------------------|

A|-2----------5----2----------5-|

E|----2----0----------2----0----|

 

Verse 1

G|-----------------------------------------------|

D|---------------------------------------------7-|

A|-2--------------------2---9-7-5--5----5---5/7--|

E|------2----/7----2-----------------------------|

 

Chorus 1

G|----------------------------------------------------------|

D|----------------------------------------------------------|

A|------------9-------9--\------------9-------9---7------5--|

E|-7--2---/7-----9-7------0-245--6-7-----9-7---------5------|

 

Verse 2

G|-------------------------------------------------------------------------------------7/97--7---|

D|-----------------------------------------2-2/4-----------4------------4-2----------------7--9--|

A|----/9----7--5-------9----7--5---0h1h2------------0-2---------0-1-2-------5--5----5----------9-|

E|-7----------------7------------------------------2----------2----------------------------------|

 

Chorus 2

G|-----------------9119---------------------------------------------|

D|---------------------11-------------------------------------------|

A|--------------/9-----------9--7------56----/9-------9---7------5--|

E|-7-\-2---5-7------------7--------678----7------987---------5------|

 

Bridge

G|----------9--7776-------------------------------------------------------------------------------------12-14-1614----|

D|------------------97---------------------------------------------------4---0-1-2------------------/14-----------16\-|

A|----/9----------------------777--2-2--4-5--5--5-5-4--4-4-4--4-4----------2---------------5----5---------------------|

E|-7-------------------7--2------0--2--2--------------------------02-032------------3h4h5-----------------------------|

 

Chorus 3

G|-------------------------------------------------------------|

D|-------------------------------------------------------------|

A|----------------------9--7-------56----9-------9---7------5--|

E|-7--2---5-7--2---5-7--------5-678---7-------7---------5------|

 

Outro

G|----------9--776-------------------------------------9--7-6--------|

D|-----------------9-7---------------------------/4-----------9-7----|

A|----/9---------------9----------7--5----0-1-2-------------------9--|

E|-7---------------------7--2----/------2----------------------------|

(fade out...)

 

 

Return to my to my Lenny Kravitz bass tabs page

The Tablature is Copyright its respective owners.

Sign Up For My Newsletter
Subscribe | Unsubscribe

Site Map | Disclaimer | Privacy Policy | Media Kit | Submissions/Corrections

Website © 2000-2014 mattsmusicpage.com. All rights reserved.

Legal & DMCA: Matt's Music Page has been providing lyrics and tabs in a legal way, paying royalties each year to a few organizations. Then, all lyrics and tabs were removed from the site. Now, there's a new owner to the site, which purchased it August 26, 2014, and he is in negotiation to obtain licensing from BMI at the moment. If you have a specific DMCA request -- please do not hesitate to contact me via the contact button on top. I will do my very best to keep this site fully legal.

Get our toolbar!

 

VINTAGE SORRENTO MUSIC JEWELRY BOX
$45.0
VINTAGE SORRENTO MUSIC JEWELRY BOX picture


VINTAGE LACQUERED MUSIC BOX JAPAN
$25.99
VINTAGE LACQUERED MUSIC BOX JAPAN picture


Vintage Kehlsteinhaus Bavaria Germany Colorscope Cow Bell View Master Music Box
$8.99
Vintage Kehlsteinhaus Bavaria Germany Colorscope Cow Bell View Master Music Box picture


VINTAGE SCHMIDT Signed Collectible Musical Turning Clown
$9.99
VINTAGE  SCHMIDT Signed Collectible Musical Turning Clown picture


Vintage - Linen - Postcard - Stage - Radio City Music Hall - New York City
$3.75
Vintage - Linen - Postcard - Stage - Radio City Music Hall - New York City   picture