Your One-Stop Source For
Music Lyrics
Bass and Guitar Tabs
and More...
Music Lyrics Bass and Guitar Tabs

 

The Tabs Are Below

Learn To Read Tab
Chords Handbook
Corrections & Additions
Get Official Tab
Lenny Kravitz tabs @ 911Tabs

Artist - Lenny Kravitz

Song - Dig In

Album - Lenny

Tabbed By - Alec MacDonald

 

 

Drums first then...

 

Intro (0:08)

G|------------------------------------------------------------------------------|

D|------------------------------------------------------------------------------| x 2

A|0-----0-0-0-0-0-0-2-----2-2-2-2-2-2-5-----5-5-5-5-5-5-5-5-5-5-5-5-5-5-5-5-5-5-|

E|------------------------------------------------------------------------------|

 

Verse (0:24) "It's time to face it..."

G|-------------------------------------------------------------------------------------|

D|-------------------------------------------------------------------------------------|

A|-------------2----------------2----------------2---------------------------------2---|

E|2-----2---R------2-----2---R--0---2-----2---R------2-----2---R--0---2-----2---R------|

 

Verse Ending (0:34) "Jump on in..."

G|--------------------------------------------------------|

D|--------------------------------------------------------|

A|-------------2----------------2-------------------------|

E|2-----2---R--0---2-----2---R------2-----2---R-----2-2-2-|

 

Pre-Chorus (0:40) "There is no where to run"

G|-------------------------------------|

D|-------------------------------2-4-2-| x 2

A|5------5-5-5-5-5-5-0-----0-2-4-------|

E|-------------------------------------|

 

Pre-Chorus (0:48) "Don't let it beat you"

G|----------------------------------------------------------|

D|----------------------------------------------------------|

A|5------5-5-5-5-5-5-6-----6-6-6-6-6-6-7-----7-7-7-7-7-7---\|

E|----------------------------------------------------------|

 

REST (0:55)

 

Chorus (0:57) "Once you dig in..."

G|------------------------------------------------------------------------------|

D|------------------------------------------------------------------------------| x 2

A|0-----0-0-0-0-0---2-----2-2-2-2-2---5-----5-5-5-5-5-5-5-5-5-5-5-5-5-5-5-5-5-5-|

E|----------------0-----------------2-------------------------------------------|

 

Verse (1:13) "Wake up and shake it..."

G|-------------------------------------------------------------------------------------|

D|-----------------------------------------------------------4p2-----------------------|

A|-------------2----------------2----------------2---------------4--0--------------2---|

E|2-----2---R------2-----2---R--0---2-----2---R------2-----2----------2-----2---R------|

 

Verse Ending (1:23) "How can you find a solution..."

G|--------------------------------------------------------|

D|--------------------------------------------------------|

A|------------------------------2-------------------------|

E|2-----2---R--0---2-----2---R------2-----2---2-2-2-2-2-2-|

 

Pre-Chorus (1:29) "When the mountain is high"

G|-------------------------------------|

D|-------------------------------2-4-2-| x 2

A|5------5-5-5-5-5---0-----0-2-4-------|

E|-----------------0-------------------|

 

Pre-Chorus (1:37) "I start to teach you..."

G|----------------------------------------------------------|

D|----------------------------------------------------------|

A|5------5-5-5-5-5-5-6-----6-6-6-6-6-6-7-----7-7-7-7-7-7---\|

E|----------------------------------------------------------|

 

REST (1:44) "Yeah yeah yeah..."

 

Chorus (1:45) "Once you dig in..."

G|------------------------------------------------------------------------------|

D|------------------------------------------------------------------------------| x 6

A|0-----0-0-0-0-0---2-----2-2-2-2-2---5-----5-5-5-5-5-5-5-5-5-5-5-5-5-5-5-5-5-5-|

E|----------------0-----------------0-------------------------------------------|

 

Break (2:34)

G|--------|

D|--------|

A|0-----0-|

E|--------|

 

REST (2:35) "Once you dig in..."

 

Chorus (2:50) "Once you dig in..."

G|------------------------------------------------------------------------------|

D|------------------------------------------------------------------------------| x 2

A|0-----0-0-0-0-0---2-----2-2-2-2-2---5-----5-5-5-5-5-5-5-5-5-5-5-5-5-5-5-5-5-5-|

E|----------------0-----------------0-------------------------------------------|

 

Chorus (3:06) "Once you dig in..."

G|------------------------------------------------------------------------------|

D|------------------------------------------------------------------------------|

A|---0--0-0-0-0-0-0-2-----2-2-2-2-2-2-5-----5-5-5-5-5-5-5-5-5-5-5-5-5-5-5-5-5-5-|

E|2-----------------------------------------------------------------------------|

 

Chorus (3:14) "And once you dig in..."

G|------------------------------------------------------------------------------|

D|------------------------------------------------------------------4---5---6---|

A|0-----0-0-0-0-0---2-----2-2-2-2-2---5-----5-5-5-5-5-5-5-5-5-5-5-5-------------|

E|----------------0-----------------0-------------------------------------------|

 

Chorus (3:22) "Time....once you dig in..."

G|------------------------------------------------------------------------------|

D|------------------------------------------------------------------------------|

A|0-----0-0-0-0-0---2-----2-2-2-2-2---5-----5-5-5-5-5-5-5-5-5-5-5-5-5-5-5-5-5-5-|

E|----------------0-----------------0-------------------------------------------|

 

Outro (3:31) "And once you dig in..."

G|--------|

D|--------|

A|0-----0-| Cut off quickly

E|--------|

 

 

Return to my to my Lenny Kravitz bass tabs page

The Tablature is Copyright its respective owners.

Sign Up For My Newsletter
Subscribe | Unsubscribe

Site Map | Disclaimer | Privacy Policy | Media Kit | Submissions/Corrections

Website © 2000-2014 mattsmusicpage.com. All rights reserved.

Legal & DMCA: Matt's Music Page has been providing lyrics and tabs in a legal way, paying royalties each year to a few organizations. Then, all lyrics and tabs were removed from the site. Now, there's a new owner to the site, which purchased it August 26, 2014, and he is in negotiation to obtain licensing from BMI at the moment. If you have a specific DMCA request -- please do not hesitate to contact me via the contact button on top. I will do my very best to keep this site fully legal.

Get our toolbar!

 

1939 LYRIC THEATRE New York PHOTO
$5.83
1939 LYRIC THEATRE New York PHOTO picture


Star Spangled Banner or Marines Hymn lyrics signed by WWII Charles W. Lindberg
$10.0
Star Spangled Banner or Marines Hymn lyrics signed by WWII Charles W. Lindberg picture


OLD LARGE HISTORIC PHOTO OF THE LYRIC THEATRE, SYDNEY c1930s, WAR BONDS BOOTH
$7.42
OLD LARGE HISTORIC PHOTO OF THE LYRIC THEATRE, SYDNEY c1930s, WAR BONDS BOOTH picture


SONG OF REVOLUTION CARD SET WITH 13 MOST FAVORED COMMUNIST SONGS LYRICS + NOTES
$24.99
SONG OF REVOLUTION CARD SET WITH 13 MOST FAVORED COMMUNIST SONGS LYRICS + NOTES picture


OLD LARGE HISTORIC PHOTO OF THE LYRIC THEATRE, SYDNEY c1930s, WAR LOANS BOOTH
$7.42
OLD LARGE HISTORIC PHOTO OF THE LYRIC THEATRE, SYDNEY c1930s, WAR LOANS BOOTH picture