Your One-Stop Source For
Music Lyrics
Bass and Guitar Tabs
and More...
Music Lyrics Bass and Guitar Tabs

 

The Tabs Are Below

Learn To Read Tab
Chords Handbook
Corrections & Additions
Get Official Tab
Lenny Kravitz tabs @ 911Tabs

Circus

Lenny Kravitz

 

tabbed by Florian "Yeti" Tirk (florian_tirk@gmx.at)

Wanted to play this great song with my band, but I found no tab, so I did it myself! Please send me your comments, feedback and corrections!

 

Bass Intro

g----------------

d--------------8-

a-----6---8h11---

e-7/8------------

 

Verse Part1

g-------------------|--------------------| 2 times

d-------------------|--------------------|

a-8------8-6------6-|------------------6-|

e-------------------|-9------9-8---8h9---|

 

Verse Part2

g---------------------|---------------------|

d---------------------|-6------6-6------6h8-|

a-6------6-6------6h8-|---------------------|

e---------------------|---------------------|

 

g-------------------|--------------------|

d-------------------|------------10------|

a-------------------|--------8h10--------|

e-9------9-9------9-|-8------------------|

 

Chorus

g-----------------|-----------------|-----------------|

d-------------6-8-|-----6-8-----6-8-|-----------------|

a-8-8-8-8-6-6-----|---------4-4-----|-4-4-4-4-4-4-6-6-|

e-----------------|-4-4-------------|-----------------|

 

g-----------------|-----------------|-----------------|--------------|

d-------------6-8-|-----6-8-----6-8-|-----------------|--------------|

a-8-8-8-8-6-6-----|---------4-4-----|-4-4-4-4-4-4---3-|-3------------|

e-----------------|-4-4-------------|-----------------|--------------|

 

Verse Part1 2 times

Verse Part2

Chorus

Verse Part1

 

Bridge

g-----------------|-----------------| 2 times

d-----------------|-----------------|

a-4-4-4-4-6-6-6-8-|-8-8-8-8-8-8-6-6-|

e-----------------|-----------------|

Fill before Solo

g-----------------|-----------------|-----------------|---------------------|

d-----------------|-----------------|-----------------|-------------------6-|

a-4-4-4-4-6-6-6-8-|-8-8-6-6-4-4-4-4-|-4-4-4-4-4-4-4-3-|-3-3-3-3-----6-6h8---|

e-----------------|-----------------|-----------------|---------7/8---------|

 

Solo: play Verse Part1 4 times

Verse Part2

Chorus

Verse Part1 2 times and slow down

 

 

Return to my to my Lenny Kravitz bass tabs page

The Tablature is Copyright its respective owners.

Sign Up For My Newsletter
Subscribe | Unsubscribe

Site Map | Disclaimer | Privacy Policy | Media Kit | Submissions/Corrections

Website © 2000-2014 mattsmusicpage.com. All rights reserved.

Legal & DMCA: Matt's Music Page has been providing lyrics and tabs in a legal way, paying royalties each year to a few organizations. Then, all lyrics and tabs were removed from the site. Now, there's a new owner to the site, which purchased it August 26, 2014, and he is in negotiation to obtain licensing from BMI at the moment. If you have a specific DMCA request -- please do not hesitate to contact me via the contact button on top. I will do my very best to keep this site fully legal.

Get our toolbar!