Your One-Stop Source For
Music Lyrics
Bass and Guitar Tabs
and More...
Music Lyrics Bass and Guitar Tabs

 

The Tabs Are Below

Learn To Read Tab
Chords Handbook
Corrections & Additions
Get Official Tab
Led Zeppelin tabs @ 911Tabs

OZONE BABY Guitar Tab

--------------------

 

Transcribed by Jeff Strawman, jstraw at led dash zeppelin dot org

http://www.led-zeppelin.org/

 

Standard Tuning

 

The main riff

E|----------------|--------------2-|----2---2-2-2-2-|2-222-2---------|

B|----------------|--------------3-|----3---3-3-3-3-|3-333-3---------|

G|----------------|--------------2-|----2---2-2-2-2-|2-222-2---------|

D|----------------|----------0-2-0-|----0---0-0-0-0-|0-000-0---------|

A|----------------|--0-2-3---------|----------------|----------------|

E|----------0-2-3-|----------------|----------------|----------------|

 

Two measures before chorus

E|----------------|----------------|

B|----------------|----------------|

G|----2---2-2-2---|2-2-2---2---2---|

D|----0---0-0-0---|0-0-0---0---0---|

A|2-3-------------|----------------|

E|----------------|----------------|

 

Chorus

E|7---7---7-------|----------------|

B|8---8---8-----3-|3--33-----3-----|

G|9---9---9-----2-|2--22-222-2-2---|

D|9---9---9-----0-|0--00-000-0-0---|

A|7---7---7-0-7---|----------------|

E|----------------|----------------|

Oooh ooh, it's my love

 

Interlude

E|----------------|--------------10|101210----------|

B|----------------|--------------10|101210----------|

G|----------------|------4---0-4---|----------------|

D|--------------4-|--0-4-----------|----------------|

A|------------0---|----------------|----------------|

E|--------0-2-----|----------------|----------------|

 

End part

E|----------------|----------------|----------------|----------------|

B|----------------|----------------|----------------|----------------|

G|----------------|----------------|----------------|----------------|

D|--6-7-----------|--6-7-----------|--6-7-----------|--6-7-----------|

A|0-4-5-----------|0-4-5-----------|0-4-5-----------|0-4-5-----------|

E|----------------|----------------|----------------|----------------|

My own true love My own true love My own true love My own true love

 

Guitar Solo

E|----------------|----------------|----------------|----------------|

B|--------------5-|--5---5---5---5-|----------------|----------------|

G|--------------5-|--5---5---5---5-|--4-2---2-------|------------20-0|

D|----------------|----------------|------4---------|-----220-224--4-|

A|----------------|----------------|----------------|--234---4-------|

E|----------------|----------------|----------------|----------------|

 

E|----------------|----------------|----------------|----------------|

B|----------------|7-5-5-----------|----------------|----------------|

G|20-020-02-----45|-5-5-54-422-20-0|20--------------|------0---0-----|

D|--4---4---------|-----------4--4-|--4220----------|-------424-42-4-|

A|----------------|----------------|------420-3-4-4-|0---------------|

E|----------------|----------------|----------------|----------------|

 

E|--------5-5---3-|5-3---3-5-2-----|------0---------|----------710-8-|

B|---33-2---------|---5--------5-2-|3---3---1-3-----|---------8------|

G|----------------|----------------|-----------00---|--------9-------|

D|0---------------|----------------|----------------|----------------|

A|--3-------------|----------------|----------------|----------------|

E|----------------|----------------|----------------|----------------|

 

octave up........

E|97--------5-7-5-|7-5-7-9---9---14|12--------------|--33--33--33----|

B|--10------------|----------------|--1412--12--12--|35--35--35--3---|

G|----------------|----------------|------14--14----|----------------|

D|----------------|----------------|----------------|----------------|

A|----------------|----------------|----------------|----------------|

E|----------------|----------------|----------------|----------------|

 

.................................:

E|5---5--55---5---|----------------|

B|---------75--75-|(5)-------------|

G|-----------6----|----------------|

D|----------------|----------------|

A|----------------|----------------|

E|----------------|----------------|

 

 

Return to my to my Led Zeppelin tabs page

The Tablature is Copyright its respective owners.

Sign Up For My Newsletter
Subscribe | Unsubscribe

Site Map | Disclaimer | Privacy Policy | Media Kit | Submissions/Corrections

Website © 2000-2014 mattsmusicpage.com. All rights reserved.

Get our toolbar!