Your One-Stop Source For
Music Lyrics
Bass and Guitar Tabs
and More...
Music Lyrics Bass and Guitar Tabs

 

Guitar Tablature of Lady Gaga Songs

Learn To Read Tab
Chords Handbook
Corrections & Additions
Get Official Tab
Lady Gaga tabs @ 911Tabs

Intro:

(music part A)

E E E E E E E E E E E E E E E E

E||---------------------------|---------------------------||

B||---------------------------|---------------------------||

G||*--------------------------|--------------------------*||

D||*--6--6--------------------|--6--6--------4--4--------*||

A||---------------6--6--------|--------7------------------||

E||---------4--4--------4--4--|-----------7--------2--2---||

 

(Music part B)

E E E E E E E E E E E E E E E E

---------------------------|--------------------------|

---------------------------|--------------------------|

*--4--4--4--4--4--4--4--4--|--4--4--4--4--6--4--6--4--|

*--------------------------|--------------------------|

---------------------------|--------------------------|

---------------------------|--------------------------|

 

E E E E E E E E E E E E E E E E

--------------------------|---------------------------||

--4--4--4--4--4--4--4--4--|--4--4--4--4--5--4--5--4---||

--------------------------|--------------------------*||

--------------------------|--------------------------*||

--------------------------|---------------------------||

--------------------------|---------------------------||

 

1. Verse(Music part A is played twice alone - after that twice with part B):

I wanna hold em' like they do in Texas Plays.

Fold em' let em' hit me raise it baby stay with me (I love it).

Luck and intuition play the cards with Spades to start,

and after he's been hooked I'll play the one that's on his heart.

 

Bridge (Music part A and B are played together 4 times):

Oh, oh, oh, oh, ohh-oh-uh-ohh-uh-oh

I'll get him hot, show him what I've got

Oh, oh, oh, oh, ohh-oh-uh-ohh-uh-oh,

I'll get him hot, show him what I've got

 

1. Refrain:

G#m E

Can't read my, can't read my!

B

No he can't read my poker face.

F#

(She's got to love nobody)

G#m E

Can't read my, can't read my!

B

No he can't read my poker face.

F#

(She's got to love nobody)

 

2. Refrain (Music part A are played twice):

Po-po-po-poker face, po-po-poker face.

Po-po-po-poker face, po-po-poker face.

 

2. Verse(Music part A is played twice alone - after that twice with part B):

I wanna roll with him a hard pair we will be.

A little gambling is fun when you're with me (I love it).

Russian Roulette is not the same without a gun,

and baby when it's love if it's not rough it isn't fun, fun!

 

Bridge (Music part A and B are played together 4 times):

Oh, oh, oh, oh, ohh-oh-uh-ohh-uh-oh

I'll get him hot, show him what I've got

Oh, oh, oh, oh, ohh-oh-uh-ohh-uh-oh,

I'll get him hot, show him what I've got

 

1. Refrain:

G#m E

Can't read my, can't read my!

B

No he can't read my poker face.

F#

(She's got to love nobody)

G#m E

Can't read my, can't read my!

B

No he can't read my poker face.

F#

(She's got to love nobody)

 

2. Refrain (Music part A are played twice):

Po-po-po-poker face, po-po-poker face.

Po-po-po-poker face, po-po-poker face.

 

(Music part C)

Q. E Q Q Q. E E E E E

E||-----------------------|-------------------------||

B||----------4--3---------|---------4--3--4--3------||

G||*-----------------4----|------------------------*||

D||*--6-------------------|--6------------------4--*||

A||-----------------------|-------------------------||

E||-----------------------|-------------------------||

 

C-part (Music part C and A are played together 4 times):

I won't tell you that I love you

kiss or hug you

'cause I'm bluffin' with my muffin.

I'm not lying I'm just stunnin' with my love-glue-gunning

just like a chick in the casino.

Take your bank before I pay you out.

I promise this, promise this

Check this hand cause I'm marvelous!

 

1. Refrain x3:

G#m E

Can't read my, can't read my!

B

No he can't read my poker face.

F#

(She's got to love nobody)

G#m E

Can't read my, can't read my!

B

No he can't read my poker face.

F#

(She's got to love nobody)

 

2. Refrain x3:

G#m E

Po-po-po-poker face, po-po-poker face.

B F#

Po-po-po-poker face, po-po-poker face.

G#m

(Muh muh muh mah)

Return to my Lady Gaga Guitar Tablature page

The Tablature is Copyright its respective owners.

The creator of this page is in no way affiliated with Lady Gaga. The creator of this page is simply a fan that made a page about Lady Gaga Tablature and more.

Sign Up For My Newsletter
Subscribe | Unsubscribe

Site Map | Disclaimer | Privacy Policy | Media Kit | Submissions/Corrections

Website © 2000-2014 mattsmusicpage.com. All rights reserved.

Legal & DMCA: Matt's Music Page has been providing lyrics and tabs in a legal way, paying royalties each year to a few organizations. Then, all lyrics and tabs were removed from the site. Now, there's a new owner to the site, which purchased it August 26, 2014, and he is in negotiation to obtain licensing from BMI at the moment. If you have a specific DMCA request -- please do not hesitate to contact me via the contact button on top. I will do my very best to keep this site fully legal.

Get our toolbar!