Your One-Stop Source For
Music Lyrics
Bass and Guitar Tabs
and More...
Music Lyrics Bass and Guitar Tabs

 

The Tabs Are Below

Learn To Read Tab
Chords Handbook
Corrections & Additions
Get Official Tab
JEW tabs @ 911Tabs

A SUNDAY - Jimmy Eat World

-------------------------------------------------------------------------------

 

Tabbed by Luc-E lgjskywalker82@home.com

 

(D A D G B E)

 

Intro

|-----------------------------------------------------------------------------|

|-----------------------------------------------------------------------------|

|-11-11-11\7-7-7-7-7-7\4-4-4-4-4-4-4-4--11-11-11\-7-7-7-6-6-6\4-4-4-4-4-4-4-4-|

|-x--x--x-\x-x-x-x-x-x-x-x-x-x-x-x-x-x--x--x--x-\-x-x-x-x-x-x-x-x-x-x-x-x-x-x-|

|-9--9--9-\5-5-5-5-5-5\2-2-2-2-2-2-2-2--9--9--9-\-5-5-5-4-4-4\2-2-2-2-2-2-2-2-|

|-0--0--0--0-0-0-0-0-0-0-0-0-0-0-0-0-0--0--0--0---0-0-0-0-0-0-0-0-0-0-0-0-0-0-|

 

Guitar1

|------------------------------------------------------------------|

|------------------------------------------------------------------|

|----------------------------------4-4-4-4-4-4-4-4-----------------|

|-7-7-7-7-7-7-7-7--2-2-2-2-2-2-2-2-4-4-4-4-4-4-4-4-5-5-5-5-5-5-5-5-|

|-4-4-4-4-4-4-4-4--2-2-2-2-2-2-2-2-2-2-2-2-2-2-2-2-5-5-5-5-5-5-5-5-|

|-4-4-4-4-4-4-4-4--2-2-2-2-2-2-2-2-----------------5-5-5-5-5-5-5-5-|

 

Guitar 2

|----12----12----12----14-|

|-15----15----15----15----|

|-------------------------|

|-------------------------|

|-------------------------|

|-------------------------|

 

Chorus: (keyboard arranged for guitar)

|--0----x----0----x----0----x----0----x--|

|--3----3----3----3----3----3----3----3--|

|--2----0----2----0----2----0----2----0--|

|--0----0----0----0----0----0----0----0--|

|--0----x----0----x----0----x----0----x--|

|--0----5----0----5----0----5----0----5--|

 

Bridge

------------------------------------------------------------------

|------------------------------------------------------------------|

|----------------------------------4-4-4-4-4-4-4-4-----------------|

|-7-7-7-7-7-7-7-7--2-2-2-2-2-2-2-2-4-4-4-4-4-4-4-4-5-5-5-5-5-5-5-5-|

|-4-4-4-4-4-4-4-4--2-2-2-2-2-2-2-2-2-2-2-2-2-2-2-2-5-5-5-5-5-5-5-5-|

|-4-4-4-4-4-4-4-4--2-2-2-2-2-2-2-2-----------------5-5-5-5-5-5-5-5-|

 

 

Return to my Jimmy Eat World tabs page

The Tablature is Copyright its respective owners.

Sign Up For My Newsletter
Subscribe | Unsubscribe

Site Map | Disclaimer | Privacy Policy | Media Kit | Submissions/Corrections

Website © 2000-2014 mattsmusicpage.com. All rights reserved.

Legal & DMCA: Matt's Music Page has been providing lyrics and tabs in a legal way, paying royalties each year to a few organizations. Then, all lyrics and tabs were removed from the site. Now, there's a new owner to the site, which purchased it August 26, 2014, and he is in negotiation to obtain licensing from BMI at the moment. If you have a specific DMCA request -- please do not hesitate to contact me via the contact button on top. I will do my very best to keep this site fully legal.

Get our toolbar!