Your One-Stop Source For
Music Lyrics
Bass and Guitar Tabs
and More...
Music Lyrics Bass and Guitar Tabs

 

The Tabs Are Below

Learn To Read Tab
Chords Handbook
Corrections & Additions
Get Official Tab
JEW tabs @ 911Tabs

 A PRAISE CHORUS

As recorded by Jimmy Eat World

(From the 2001 Album BLEED AMERICAN)

 

Transcribed by Vince a.k.a

 

Gtr I (D A D G B E) - 'Distorted'

Gtr II (D A D G B E) - 'Distorted'

 

Intro

Q=182

4/4

Gtr I

|-----|

|-----|

|-----|

|-----|

|-----|

|-----|

 

 

|---------------|----------------|---------------|-----------------|

|---------------|----------------|---------------|-----------------|

|---------------|----------------|---------------|-----------------|

|-7-7-7--7--7-7-|-(7)-7-7--7--7--|-7-7-7--7--7-7-|-(7)-7-7--7--7-7-|

|-7-7-7--7--7-7-|-(7)-7-7--7--7--|-7-7-7--7--7-7-|-(7)-7-7--7--7-7-|

|-7-7-7--7--7-7-|-(7)-7-7--7--7--|-7-7-7--7--7-7-|-(7)-7-7--7--7-7-|

 

 

Gtr II

|---------------|------------------|---------------|------------------|

|---------------|------------------|---------------|------------------|

|-9---9--9--9-9-|-(9)-9-9-9-9--9-9-|-9-9-9--9--9-9-|-(9)-9-9-9-9--9-9-|

|-x---x--x--x-x-|-----x-x-x-x--x-x-|-x-x-x--x--x-x-|-----x-x-x-x--x-x-|

|-7---7--7--7-7-|-(7)-7-7-7-7--7-7-|-7-7-7--7--7-7-|-(7)-7-7-7-7--7-7-|

|---------------|------------------|---------------|------------------|

|

| Gtr I

|---------------|------------------|---------------|------------------|

|---------------|------------------|---------------|------------------|

|---------------|------------------|---------------|------------------|

|-7-7-7--7--7-7-|-(7)-7-7---7--7---|-7-7-7--7--7-7-|-(7)-7-7---7--7---|

|-7-7-7--7--7-7-|-(7)-7-7---7--7---|-7-7-7--7--7-7-|-(7)-7-7---7--7---|

|-7-7-7--7--7-7-|-(7)-7-7---7--7---|-7-7-7--7--7-7-|-(7)-7-7---7--7---|

 

 

Verse

Gtr I

||------------------|-----------------|-----------------|------------------|

||o-----------------|-----------------|-----------------|------------------|

||--9-9-9-9-9-9-9-9-|-9-9-9-9-9-9-9-9-|-9-9-9-9-9-9-9-9-|-9-9-9-9-9-9-9-9--|

||--7-7-7-7-7-7-7-7-|-7-7-7-7-7-7-7-7-|-7-7-7-7-7-7-7-7-|-7-7-7-7-7-7-7-7--|

||o-7-7-7-7-7-7-7-7-|-7-7-7-7-7-7-7-7-|-7-7-7-7-7-7-7-7-|-7-7-7-7-7-7-7-7--|

||--7-7-7-7-7-7-7-7-|-7-7-7-7-7-7-7-7-|-7-7-7-7-7-7-7-7-|-7-7-7-7-7-7-7-7--|

 

 

4x

|-----------------|-----------------|-----------------|------------------||

|-----------------|-----------------|-----------------|-----------------o||

|-6-6-6-6-6-6-6-6-|-6-6-6-6-6-6-6-6-|-6-6-6-6-6-6-6-6-|-6-6-6-6-6-6-6-6--||

|-4-4-4-4-4-4-4-4-|-4-4-4-4-4-4-4-4-|-4-4-4-4-4-4-4-4-|-4-4-4-4-4-4-4-4--||

|-4-4-4-4-4-4-4-4-|-4-4-4-4-4-4-4-4-|-4-4-4-4-4-4-4-4-|-4-4-4-4-4-4-4-4-o||

|-4-4-4-4-4-4-4-4-|-4-4-4-4-4-4-4-4-|-4-4-4-4-4-4-4-4-|-4-4-4-4-4-4-4-4--||

 

 

Chorus

|---------------|---------------|---------------|---------------|

|---------------|---------------|---------------|---------------|

|---------------|---------------|---------------|---------------|

|---------------|---------------|---------------|---------------|

|-0-0--0-0-0--0-|-2-2--2-2-2--2-|-4-4--4-4-4--4-|-4-4--4-4-4--4-|

|-0-0--0-0-0--0-|-2-2--2-2-2--2-|-4-4--4-4-4--4-|-4-4--4-4-4--4-|

 

 

|---------------|---------------|---------------|---------------|

|---------------|---------------|---------------|---------------|

|---------------|---------------|---------------|---------------|

|---------------|---------------|---------------|---------------|

|-0-0--0-0-0--0-|-2-2--2-2-2--2-|-4-4--4-4-4--4-|-4-4--4-4-4--4-|

|-0-0--0-0-0--0-|-2-2--2-2-2--2-|-4-4--4-4-4--4-|-4-4--4-4-4--4-|

 

 

|---------------|---------------|---------------|---------------|

|---------------|---------------|---------------|---------------|

|---------------|---------------|---------------|---------------|

|---------------|---------------|---------------|---------------|

|-0-0--0-0-0--0-|-2-2--2-2-2--2-|-4-4--4-2-2--2-|-0-0--0-0-0--0-|

|-0-0--0-0-0--0-|-2-2--2-2-2--2-|-4-4--4-2-2--2-|-0-0--0-0-0--0-|

 

 

|---------------|---------------|

|---------------|---------------|

|---------------|---------------|

|---------------|---------------|

|-0-0--0-0-0--0-|-2-2--2-2-2--2-|

|-0-0--0-0-0--0-|-2-2--2-2-2--2-|

 

 

Bridge

Gtr II

|---------------|----------------|---------------|------------------|

|---------------|----------------|---------------|------------------|

|---------------|----------------|-9-9-9--9--9-9-|-(9)-9-9-9-9--9-9-|

|---------------|----------------|-x-x-x--x--x-x-|-----x-x-x-x--x-x-|

|---------------|----------------|-7-7-7--7--7-7-|-(7)-7-7-7-7--7-7-|

|---------------|----------------|---------------|------------------|

|

| Gtr I

|---------------|----------------|---------------|------------------|

|---------------|----------------|---------------|------------------|

|---------------|----------------|---------------|------------------|

|-7-7-7--7--7-7-|-(7)-7-7--7--7--|-7-7-7--7--7-7-|-(7)-7-7---7--7---|

|-7-7-7--7--7-7-|-(7)-7-7--7--7--|-7-7-7--7--7-7-|-(7)-7-7---7--7---|

|-7-7-7--7--7-7-|-(7)-7-7--7--7--|-7-7-7--7--7-7-|-(7)-7-7---7--7---|

 

 

Verse

Gtr I

||------------------|-----------------|-----------------|------------------|

||o-----------------|-----------------|-----------------|------------------|

||--9-9-9-9-9-9-9-9-|-9-9-9-9-9-9-9-9-|-9-9-9-9-9-9-9-9-|-9-9-9-9-9-9-9-9--|

||--7-7-7-7-7-7-7-7-|-7-7-7-7-7-7-7-7-|-7-7-7-7-7-7-7-7-|-7-7-7-7-7-7-7-7--|

||o-7-7-7-7-7-7-7-7-|-7-7-7-7-7-7-7-7-|-7-7-7-7-7-7-7-7-|-7-7-7-7-7-7-7-7--|

||--7-7-7-7-7-7-7-7-|-7-7-7-7-7-7-7-7-|-7-7-7-7-7-7-7-7-|-7-7-7-7-7-7-7-7--|

 

 

4x

|-----------------|-----------------|-----------------|------------------||

|-----------------|-----------------|-----------------|-----------------o||

|-6-6-6-6-6-6-6-6-|-6-6-6-6-6-6-6-6-|-6-6-6-6-6-6-6-6-|-6-6-6-6-6-6-6-6--||

|-4-4-4-4-4-4-4-4-|-4-4-4-4-4-4-4-4-|-4-4-4-4-4-4-4-4-|-4-4-4-4-4-4-4-4--||

|-4-4-4-4-4-4-4-4-|-4-4-4-4-4-4-4-4-|-4-4-4-4-4-4-4-4-|-4-4-4-4-4-4-4-4-o||

|-4-4-4-4-4-4-4-4-|-4-4-4-4-4-4-4-4-|-4-4-4-4-4-4-4-4-|-4-4-4-4-4-4-4-4--||

 

 

Chorus

|---------------|---------------|---------------|---------------|

|---------------|---------------|---------------|---------------|

|---------------|---------------|---------------|---------------|

|---------------|---------------|---------------|---------------|

|-0-0--0-0-0--0-|-2-2--2-2-2--2-|-4-4--4-4-4--4-|-4-4--4-4-4--4-|

|-0-0--0-0-0--0-|-2-2--2-2-2--2-|-4-4--4-4-4--4-|-4-4--4-4-4--4-|

 

 

|---------------|---------------|---------------|---------------|

|---------------|---------------|---------------|---------------|

|---------------|---------------|---------------|---------------|

|---------------|---------------|---------------|---------------|

|-0-0--0-0-0--0-|-2-2--2-2-2--2-|-4-4--4-4-4--4-|-4-4--4-4-4--4-|

|-0-0--0-0-0--0-|-2-2--2-2-2--2-|-4-4--4-4-4--4-|-4-4--4-4-4--4-|

 

 

|---------------|---------------|---------------|---------------|

|---------------|---------------|---------------|---------------|

|---------------|---------------|---------------|---------------|

|---------------|---------------|---------------|---------------|

|-0-0--0-0-0--0-|-2-2--2-2-2--2-|-4-4--4-2-2--2-|-0-0--0-0-0--0-|

|-0-0--0-0-0--0-|-2-2--2-2-2--2-|-4-4--4-2-2--2-|-0-0--0-0-0--0-|

 

 

|---------------|---------------|

|---------------|---------------|

|---------------|---------------|

|---------------|---------------|

|-0-0--0-0-0--0-|-2-2--2-2-2--2-|

|-0-0--0-0-0--0-|-2-2--2-2-2--2-|

 

 

Bridge

Gtr II

|---------------|----------------|---------------|------------------|

|---------------|----------------|---------------|------------------|

|---------------|----------------|-9-9-9--9--9-9-|-(9)-9-9-9-9--9-9-|

|---------------|----------------|-x-x-x--x--x-x-|-----x-x-x-x--x-x-|

|---------------|----------------|-7-7-7--7--7-7-|-(7)-7-7-7-7--7-7-|

|---------------|----------------|---------------|------------------|

|

| Gtr I

|---------------|----------------|---------------|------------------|

|---------------|----------------|---------------|------------------|

|---------------|----------------|---------------|------------------|

|-7-7-7--7--7-7-|-(7)-7-7--7--7--|-7-7-7--7--7-7-|-(7)-7-7---7--7---|

|-7-7-7--7--7-7-|-(7)-7-7--7--7--|-7-7-7--7--7-7-|-(7)-7-7---7--7---|

|-7-7-7--7--7-7-|-(7)-7-7--7--7--|-7-7-7--7--7-7-|-(7)-7-7---7--7---|

 

 

Interlude

Gtr I

||---------------|------------------|--------------|-------------------|

||o--------------|------------------|--------------|-------------------|

||--------9--9-9-|-(9)-9-9--9-9-9-9-|-------4--4-4-|-(4)-4-4--4-4-4-4--|

||--7--7--7--7-7-|-(7)-7-7--7-7-7-7-|-2--2--2--2-2-|-(2)-2-2--2-2-2-2--|

||o-7--7--7--7-7-|-(7)-7-7--7-7-7-7-|-2--2--2--2-2-|-(2)-2-2--2-2-2-2--|

||--7--7--7--7-7-|-(7)-7-7--7-7-7-7-|-2--2--2--2-2-|-(2)-2-2--2-2-2-2--|

 

 

|--------------|------------------|--------------|-------------------||

|-------5--5-5-|-(5)-5-5--5-5-5-5-|--------------|------------------o||

|-------6--6-6-|-(6)-6-6--6-6-6-6-|-------9--9-9-|-(9)-9-9--9-9-9-9--||

|-6--6--7--7-7-|-(7)-7-7--7-7-7-7-|-7--7--9--9-9-|-(9)-9-9--9-9-9-9--||

|-4--4--4--4-4-|-(4)-4-4--4-4-4-4-|-7--7--7--7-7-|-(7)-7-7--7-7-7-7-o||

|-4--4--4--4-4-|-(4)-4-4--4-4-4-4-|-7--7--7--7-7-|-(7)-7-7--7-7-7-7--||

 

 

Gtr I

||---------------|------------------|--------------|-------------------|

||o--------------|------------------|--------------|-------------------|

||--------9--9-9-|-(9)-9-9--9-9-9-9-|-------4--4-4-|-(4)-4-4--4-4-4-4--|

||--7--7--7--7-7-|-(7)-7-7--7-7-7-7-|-2--2--2--2-2-|-(2)-2-2--2-2-2-2--|

||o-7--7--7--7-7-|-(7)-7-7--7-7-7-7-|-2--2--2--2-2-|-(2)-2-2--2-2-2-2--|

||--7--7--7--7-7-|-(7)-7-7--7-7-7-7-|-2--2--2--2-2-|-(2)-2-2--2-2-2-2--|

|

| Gtr II

||---------------|------------------|--------------|-------------------|

||o--------------|------------------|--------------|-------------------|

||--9--9--9--9-9-|-(9)-9-9--9-9-9-9-|-9--9--9--9-9-|-(9)-9-9--9-9-9-9--|

||--x--x--x--x-x-|-----x-x--x-x-x-x-|-x--x--x--x-x-|-----x-x--x-x-x-x--|

||o-7--7--7--7-7-|-(7)-7-7--7-7-7-7-|-7--7--7--7-7-|-(7)-7-7--7-7-7-7--|

||--7--7--7--7-7-|-(7)-7-7--7-7-7-7-|-7--7--7--7-7-|-(7)-7-7--7-7-7-7--|

 

 

|--------------|------------------|--------------|-------------------||

|--------------|------------------|--------------|------------------o||

|-------6--6-6-|-(6)-6-6--6-6-6-6-|-------9--9-9-|-(9)-9-9--9-9-9-9--||

|-6--6--7--7-7-|-(7)-7-7--7-7-7-7-|-7--7--9--9-9-|-(9)-9-9--9-9-9-9--||

|-4--4--4--4-4-|-(4)-4-4--4-4-4-4-|-7--7--7--7-7-|-(7)-7-7--7-7-7-7-o||

|-4--4--4--4-4-|-(4)-4-4--4-4-4-4-|-7--7--7--7-7-|-(7)-7-7--7-7-7-7--||

|

|--------------|------------------|--------------|-------------------||

|--------------|------------------|--------------|------------------o||

|-9--9--9--9-9-|-(9)-9-9--9-9-9-9-|-9--9--9--9-9-|-(9)-9-9--9-9-9-9--||

|-x--x--x--x-x-|-----x-x--x-x-x-x-|-x--x--x--x-x-|-----x-x--x-x-x-x--||

|-7--7--7--7-7-|-(7)-7-7--7-7-7-7-|-7--7--7--7-7-|-(7)-7-7--7-7-7-7-o||

|-7--7--7--7-7-|-(7)-7-7--7-7-7-7-|-7--7--7--7-7-|-(7)-7-7--7-7-7-7--||

 

 

Chorus

|--------------|------------------|--------------|------------------|

|--------------|------------------|--------------|------------------|

|--------------|------------------|--------------|------------------|

|-0--0--0--0-2-|-(2)-2-2--2-2-2-2-|-4--4--4--4-4-|-(4)-4-4--4-4-4-4-|

|-0--0--0--0-2-|-(2)-2-2--2-2-2-2-|-4--4--4--4-4-|-(4)-4-4--4-4-4-4-|

|-0--0--0--0-2-|-(2)-2-2--2-2-2-2-|-4--4--4--4-4-|-(4)-4-4--4-4-4-4-|

|

|--------------|------------------|--------------|------------------|

|--------------|------------------|--------------|------------------|

|-9--9--9--9-9-|-(9)-9-9--9-9-9-9-|-9--9--9--9-9-|-(9)-9-9--9-9-9-9-|

|-x--x--x--x-x-|-----x-x--x-x-x-x-|-x--x--x--x-x-|-----x-x--x-x-x-x-|

|-7--7--7--7-7-|-(7)-7-7--7-7-7-7-|-7--7--7--7-7-|-(7)-7-7--7-7-7-7-|

|--------------|------------------|--------------|------------------|

 

 

|--------------|------------------|--------------|------------------|

|--------------|------------------|--------------|------------------|

|--------------|------------------|--------------|------------------|

|-0--0--0--0-2-|-(2)-2-2--2-2-2-2-|-4--4--4--4-4-|-(4)-4-4--4-4-4-4-|

|-0--0--0--0-2-|-(2)-2-2--2-2-2-2-|-4--4--4--4-4-|-(4)-4-4--4-4-4-4-|

|-0--0--0--0-2-|-(2)-2-2--2-2-2-2-|-4--4--4--4-4-|-(4)-4-4--4-4-4-4-|

|

|--------------|------------------|--------------|------------------|

|--------------|------------------|--------------|------------------|

|-9--9--9--9-9-|-(9)-9-9--9-9-9-9-|-9--9--9--9-9-|-(9)-9-9--9-9-9-9-|

|-x--x--x--x-x-|-----x-x--x-x-x-x-|-x--x--x--x-x-|-----x-x--x-x-x-x-|

|-7--7--7--7-7-|-(7)-7-7--7-7-7-7-|-7--7--7--7-7-|-(7)-7-7--7-7-7-7-|

|--------------|------------------|--------------|------------------|

 

 

|--------------|------------------|-----------|---------------|

|--------------|------------------|-----------|---------------|

|--------------|------------------|-----------|---------------|

|-0--0--0--0-2-|-(2)-2-2--2-2-2-2-|-4----2----|-0--0-0--0-0-0-|

|-0--0--0--0-2-|-(2)-2-2--2-2-2-2-|-4----2----|-0--0-0--0-0-0-|

|-0--0--0--0-2-|-(2)-2-2--2-2-2-2-|-4----2----|-0--0-0--0-0-0-|

|

|--------------|------------------|-----------|---------------|

|--------------|------------------|-----------|---------------|

|-9--9--9--9-9-|-(9)-9-9--9-9-9-9-|-9----9----|-9--9-9--9-9-9-|

|-x--x--x--x-x-|-----x-x--x-x-x-x-|-x----x----|-x--x-x--x-x-x-|

|-7--7--7--7-7-|-(7)-7-7--7-7-7-7-|-7----7----|-7--7-7--7-7-7-|

|--------------|------------------|-----------|---------------|

 

 

|--------------|------------------|--------------|------------------|

|--------------|------------------|--------------|------------------|

|--------------|------------------|--------------|------------------|

|-0--0--0--0-2-|-(2)-2-2--2-2-2-2-|-4--4--4--4-4-|-(4)-4-4--4-4-4-4-|

|-0--0--0--0-2-|-(2)-2-2--2-2-2-2-|-4--4--4--4-4-|-(4)-4-4--4-4-4-4-|

|-0--0--0--0-2-|-(2)-2-2--2-2-2-2-|-4--4--4--4-4-|-(4)-4-4--4-4-4-4-|

|

|--------------|------------------|--------------|------------------|

|--------------|------------------|--------------|------------------|

|-9--9--9--9-9-|-(9)-9-9--9-9-9-9-|-9--9--9--9-9-|-(9)-9-9--9-9-9-9-|

|-x--x--x--x-x-|-----x-x--x-x-x-x-|-x--x--x--x-x-|-----x-x--x-x-x-x-|

|-7--7--7--7-7-|-(7)-7-7--7-7-7-7-|-7--7--7--7-7-|-(7)-7-7--7-7-7-7-|

|--------------|------------------|--------------|------------------|

 

 

|--------------|------------------|--------------|------------------|

|--------------|------------------|--------------|------------------|

|--------------|------------------|--------------|------------------|

|-0--0--0--0-2-|-(2)-2-2--2-2-2-2-|-4--4--4--4-4-|-(4)-4-4--4-4-4-4-|

|-0--0--0--0-2-|-(2)-2-2--2-2-2-2-|-4--4--4--4-4-|-(4)-4-4--4-4-4-4-|

|-0--0--0--0-2-|-(2)-2-2--2-2-2-2-|-4--4--4--4-4-|-(4)-4-4--4-4-4-4-|

|

|--------------|------------------|--------------|------------------|

|--------------|------------------|--------------|------------------|

|-9--9--9--9-9-|-(9)-9-9--9-9-9-9-|-9--9--9--9-9-|-(9)-9-9--9-9-9-9-|

|-x--x--x--x-x-|-----x-x--x-x-x-x-|-x--x--x--x-x-|-----x-x--x-x-x-x-|

|-7--7--7--7-7-|-(7)-7-7--7-7-7-7-|-7--7--7--7-7-|-(7)-7-7--7-7-7-7-|

|--------------|------------------|--------------|------------------|

 

 

|--------------|------------------|-----------|---------------|

|--------------|------------------|-----------|---------------|

|--------------|------------------|-----------|---------------|

|-0--0--0--0-2-|-(2)-2-2--2-2-2-2-|-4----2----|-0--0-0--0-0-0-|

|-0--0--0--0-2-|-(2)-2-2--2-2-2-2-|-4----2----|-0--0-0--0-0-0-|

|-0--0--0--0-2-|-(2)-2-2--2-2-2-2-|-4----2----|-0--0-0--0-0-0-|

|

|--------------|------------------|-----------|---------------|

|--------------|------------------|-----------|---------------|

|-9--9--9--9-9-|-(9)-9-9--9-9-9-9-|-9----9----|-9--9-9--9-9-9-|

|-x--x--x--x-x-|-----x-x--x-x-x-x-|-x----x----|-x--x-x--x-x-x-|

|-7--7--7--7-7-|-(7)-7-7--7-7-7-7-|-7----7----|-7--7-7--7-7-7-|

|--------------|------------------|-----------|---------------|

 

 

|--------------|------------------||

|--------------|------------------||

|--------------|------------------||

|-0--0--0--0-2-|-(2)-2-2--2-2-2-2-||

|-0--0--0--0-2-|-(2)-2-2--2-2-2-2-||

|-0--0--0--0-2-|-(2)-2-2--2-2-2-2-||

|

|--------------|------------------||

|--------------|------------------||

|-9--9--9--9-9-|-(9)-9-9--9-9-9-9-||

|-x--x--x--x-x-|-----x-x--x-x-x-x-||

|-7--7--7--7-7-|-(7)-7-7--7-7-7-7-||

|--------------|------------------||

 

 

Outro

Gtr I

|---------------|----------------|---------------|-----------------|

|---------------|----------------|---------------|-----------------|

|---------------|----------------|---------------|-----------------|

|-7-7-7--7--7-7-|-(7)-7-7--7--7--|-7-7-7--7--7-7-|-(7)-7-7--7--7-7-|

|-7-7-7--7--7-7-|-(7)-7-7--7--7--|-7-7-7--7--7-7-|-(7)-7-7--7--7-7-|

|-7-7-7--7--7-7-|-(7)-7-7--7--7--|-7-7-7--7--7-7-|-(7)-7-7--7--7-7-|

 

 

Gtr II

|---------------|------------------|---------------|------------------|

|---------------|------------------|---------------|------------------|

|-9---9--9--9-9-|-(9)-9-9-9-9--9-9-|-9-9-9--9--9-9-|-(9)-9-9-9-9--9-9-|

|-x---x--x--x-x-|-----x-x-x-x--x-x-|-x-x-x--x--x-x-|-----x-x-x-x--x-x-|

|-7---7--7--7-7-|-(7)-7-7-7-7--7-7-|-7-7-7--7--7-7-|-(7)-7-7-7-7--7-7-|

|---------------|------------------|---------------|------------------|

|

| Gtr I

|---------------|------------------|---------------|------------------|

|---------------|------------------|---------------|------------------|

|---------------|------------------|---------------|------------------|

|-7-7-7--7--7-7-|-(7)-7-7---7--7---|-7-7-7--7--7-7-|-(7)-7-7---7--7---|

|-7-7-7--7--7-7-|-(7)-7-7---7--7---|-7-7-7--7--7-7-|-(7)-7-7---7--7---|

|-7-7-7--7--7-7-|-(7)-7-7---7--7---|-7-7-7--7--7-7-|-(7)-7-7---7--7---|

 

 

Gtr II

|----------|------------|------------|--------*|

|----------|------------|------------|--------*|

|-9--------|-(9)--------|-(9)--------|-(9)----*|

|-9--------|-(9)--------|-(9)--------|-(9)----*|

|-7--------|-(7)--------|-(7)--------|-(7)----*|

|----------|------------|------------|--------*|

|

| Gtr I

|----------|------------|------------|--------*|

|----------|------------|------------|--------*|

|----------|------------|------------|--------*|

|-7--------|-(7)--------|-(7)--------|-(7)----*|

|-7--------|-(7)--------|-(7)--------|-(7)----*|

|-7--------|-(7)--------|-(7)--------|-(7)----*|

 

 

Tablature Legend

----------------

h - hammer-on

p - pull-off

b - bend

pb - pre-bend

r - bend release (if no number after the r, then release immediately)

/\ - slide into or out of (from/to "nowhere")

s - legato slide

S - shift slide

<n> - natural harmonic

[n] - artificial harmonic

n(n) - tapped harmonic

~ - vibrato

tr - trill

T - tap

TP - trem. picking

PM - palm muting

\n/ - tremolo bar dip; n = amount to dip

\n - tremolo bar down

n/ - tremolo bar up

/n\ - tremolo bar inverted dip

= - hold bend; also acts as connecting device for hammers/pulls

<> - volume swell (louder/softer)

x - on rhythm slash represents muted slash

o - on rhythm slash represents single note slash

 

Misc Legend

-----------

| - bar

|| - double bar

||o - repeat start

o|| - repeat end

*| - double bar (ending)

: - bar (freetime)

$ - Segno

& - Coda

Tempo markers - <E/E./Q/Q./H/H.> = BPM(8/16=s8/s16),

where s8 = swing 8ths, s16 = swing 16ths

 

 

Return to my Jimmy Eat World tabs page

The Tablature is Copyright its respective owners.

Sign Up For My Newsletter
Subscribe | Unsubscribe

Site Map | Disclaimer | Privacy Policy | Media Kit | Submissions/Corrections

Website © 2000-2014 mattsmusicpage.com. All rights reserved.

Legal & DMCA: Matt's Music Page has been providing lyrics and tabs in a legal way, paying royalties each year to a few organizations. Then, all lyrics and tabs were removed from the site. Now, there's a new owner to the site, which purchased it August 26, 2014, and he is in negotiation to obtain licensing from BMI at the moment. If you have a specific DMCA request -- please do not hesitate to contact me via the contact button on top. I will do my very best to keep this site fully legal.

Get our toolbar!