Your One-Stop Source For
Music Lyrics
Bass and Guitar Tabs
and More...
Music Lyrics Bass and Guitar Tabs

 

The Tabs Are Below

Learn To Read Tab
Chords Handbook
Corrections & Additions
Get Official Tab
JEW tabs @ 911Tabs

JIMMY EAT WORLD

GOOD TO GO (EP)

GAME OF PRICKS (BBC EVENING SESSION)

Tabbed by al@onedollarshort.zzn.com

 

NORMAL TUNING

 

INTRO

 

GUITAR 1

|--0-0-0-0-0--------|

|--5-5-5-5-5--------|

|-------------etc.--|

|-------------------|

|-------------------|

|-------------------|

 

GUITAR 2

|---------------------------------------------|

|---------------------------------------------|

|------------4-4-4-6-6-7-7-7-7-7-7-7-7-7-7-7--|

|--7-7-7-7-7-X-X-X-X-X-X-X-X-X-X-X-X-X-X-X-X--|

|--X-X-X-X-X-2-2-2-4-4-5-5-5-5-5-5-5-5-5-5-5--|

|--5-5-5-5-5----------------------------------|x2

 

 

INTRO CONT'/ VERSE [BOTH GUITARS]

|-------------------------------------------------|

|-------------------------------------------------|

|-------------------------------------------------|

|----------------6-6-6-6---------7-7-7-7-7-7-7-7--|

|--7-7-7-7-7-7-7-4-4-4-4-4-4-4-4-5-5-5-5-5-5-5-5--|

|--5-5-5-5-5-5-5---------2-2-2-2------------------|x4

 

 

CHORUS [BOTH GUITARS] "....you can never be strong, you can only be free...."

|-----------------------------------------------------------------------------------|

|-----------------------------------------------------------------------------------|

|-----------------------------------------------------------------------------------|

|--4-4-4-4-4-4-4-4-4-4-7-7-7-7-7-7-7-7-7-----------------4-4-4-4-6-6-6-6-7-7-7-7-7--|

|--2-2-2-2-2-2-2-2-2-2-5-5-5-5-5-5-5-5-5-7-7-7-7-7-7-7-7-2-2-2-2-4-4-4-4-5-5-5-5-5--|

|----------------------------------------5-5-5-5-4-4-4-4----------------------------|

 

THEN BACK TO THE INTRO/VERSE RIFF BUT GUITAR 1 PLAYS THE E NOTE FROM THE INTRO

 

THEN REPEAT CHORUS

 

BRIDGE IS THE SAME AS THE INTRO CONT'

 

THEN PLAY THE CHORUS REPEATING THE END HALF WHERE HE SINGS

"...i've never asked for the truth don't you owe that to me....?

 

 

Return to my Jimmy Eat World tabs page

The Tablature is Copyright its respective owners.

Sign Up For My Newsletter
Subscribe | Unsubscribe

Site Map | Disclaimer | Privacy Policy | Media Kit | Submissions/Corrections

Website © 2000-2014 mattsmusicpage.com. All rights reserved.

Legal & DMCA: Matt's Music Page has been providing lyrics and tabs in a legal way, paying royalties each year to a few organizations. Then, all lyrics and tabs were removed from the site. Now, there's a new owner to the site, which purchased it August 26, 2014, and he is in negotiation to obtain licensing from BMI at the moment. If you have a specific DMCA request -- please do not hesitate to contact me via the contact button on top. I will do my very best to keep this site fully legal.

Get our toolbar!