Your One-Stop Source For
Music Lyrics
Bass and Guitar Tabs
and More...
Music Lyrics Bass and Guitar Tabs

 

The Tabs Are Below

Learn To Read Tab
Chords Handbook
Corrections & Additions
Get Official Tab
JEW tabs @ 911Tabs

CRUSH - Jimmy Eat World

-------------------------------------------------------------------------------

 

Tabbed by Luc-E

lgjskywalker82@home.com

Posted By - Blink_Chick

 

(D A D G B E)

 

Intro:

------------------------------------------------------

------------------------------------------------------

------------------------------------------------------

-0------------------------7-7-7-7-7-7-7-7-7-7-7-7-7-7-

-0------------------------5-5-5-5-5-5-5-5-5-5-5-5-5-5-

-0------------------------5-5-5-5-5-5-5-5-5-5-5-5-5-5-

 

Verse:

-----------------------------------------------------------------

-----------------------------------------------------------------

-----------------------------------------------------------------

-0-0-0-0-0-0-0-0-0-0-0-0-0-0-0-0-0-0-7-7-7-7-7-7-7-7-7-7-7-7-7-7-

-0-0-0-0-0-0-0-0-0-0-0-0-0-0-0-0-0-0-5-5-5-5-5-5-5-5-5-5-5-5-5-5-

-0-0-0-0-0-0-0-0-0-0-0-0-0-0-0-0-0-0-5-5-5-5-5-5-5-5-5-5-5-5-5-5-

 

Chorus:

------0-0-0--0--0--0--------0-0-0--0--0--0---

------3-3-0--0--0--0--------3-3-0--0--0--0---

------2-2-9^-9^-9^-9^-------2-2-9^-9^-9^-9^--

-7--7-0-0-x--x--x--x---7--7-0-0-x--x--x--x---

-4--5-0-0-7^-7^-7^-7^--4--5-0-0-7^-7^-7^-7^--

-4--5-0-0--------------4--5-0-0--------------

 

-----0-0-0-0----------------------------------------------

-----3-3-3-3----------------------------------------------

-----2-2-2-2----------------------------------------------

-7-7-0-0-0-0--7-7-0-0-7-7-5-5-5-5-5-5-5-5-5-5-5-5-5-5-5-5-

-4-5-0-0-0-0--4-5-0-0-7-7-5-5-5-5-5-5-5-5-5-5-5-5-5-5-5-5-

-4-5-0-0-0-0--4-5-0-0-7-7-5-5-5-5-5-5-5-5-5-5-5-5-5-5-5-5-

 

Bridge:

 

Guitar 1

---------------------------------

---------------------------------

---------------------------------

-7-7-7-7-0-0-0-0-9-9-9-9-5-5-5-5-

-4-4-4-4-0-0-0-0-9-9-9-9-5-5-5-5-

-4-4-4-4-0-0-0-0-9-9-9-9-5-5-5-5-

 

Guitar 2

-12-----12-----12----12---12-----12-----12----12----14----14----14----14----14----14----14-----

---15-----15-----15----15---15-----15-----15----15----15----15----15----15---15-----15----15---

-----14-----14-----14----14---14-----14-----14----14----14----14----14----14---14-----14----14-

-----------------------------------------------------------------------------------------------

-----------------------------------------------------------------------------------------------

-----------------------------------------------------------------------------------------------

 

Guitar 3

-----0-------0-------0---------0---------0-------0-------0---------0-----

---3---3---3---3---3---3-----3---3-----3---3---3---3---3---3-----3---3---

-----------------4-------4-0-------0-----------------4-------4-0-------0-

-4-------0---------------------------4-------0---------------------------

-------------------------------------------------------------------------

-------------------------------------------------------------------------

 

---------------0-

---------------3-

---------------2-

-7-7-0----7-7--0-

-4-5-0----4-5--0-

-4-5-0----4-5--0-

 

 

Return to my Jimmy Eat World tabs page

The Tablature is Copyright its respective owners.

Sign Up For My Newsletter
Subscribe | Unsubscribe

Site Map | Disclaimer | Privacy Policy | Media Kit | Submissions/Corrections

Website © 2000-2014 mattsmusicpage.com. All rights reserved.

Legal & DMCA: Matt's Music Page has been providing lyrics and tabs in a legal way, paying royalties each year to a few organizations. Then, all lyrics and tabs were removed from the site. Now, there's a new owner to the site, which purchased it August 26, 2014, and he is in negotiation to obtain licensing from BMI at the moment. If you have a specific DMCA request -- please do not hesitate to contact me via the contact button on top. I will do my very best to keep this site fully legal.

Get our toolbar!

 

1939 LYRIC THEATRE New York PHOTO
$5.83
1939 LYRIC THEATRE New York PHOTO picture


Star Spangled Banner or Marines Hymn lyrics signed by WWII Charles W. Lindberg
$10.0
Star Spangled Banner or Marines Hymn lyrics signed by WWII Charles W. Lindberg picture


OLD LARGE HISTORIC PHOTO OF THE LYRIC THEATRE, SYDNEY c1930s, WAR BONDS BOOTH
$7.42
OLD LARGE HISTORIC PHOTO OF THE LYRIC THEATRE, SYDNEY c1930s, WAR BONDS BOOTH picture


SONG OF REVOLUTION CARD SET WITH 13 MOST FAVORED COMMUNIST SONGS LYRICS + NOTES
$24.99
SONG OF REVOLUTION CARD SET WITH 13 MOST FAVORED COMMUNIST SONGS LYRICS + NOTES picture


OLD LARGE HISTORIC PHOTO OF THE LYRIC THEATRE, SYDNEY c1930s, WAR LOANS BOOTH
$7.42
OLD LARGE HISTORIC PHOTO OF THE LYRIC THEATRE, SYDNEY c1930s, WAR LOANS BOOTH picture