Your One-Stop Source For
Music Lyrics
Bass and Guitar Tabs
and More...
>Music Lyrics Bass and Guitar Tabs

 

The Tabs Are Below

Learn To Read Tab
Chords Handbook
Corrections & Additions
Get Official Tab
JEW tabs @ 911Tabs

THINKING THAT'S ALL - Jimmy Eat World

-------------------------------------------------------------------------------

 

Tabbed by:Alex Sherbuck emokid9865@aol.com

 

Verse 1

G------------------------------------------------------------

D------------------------------------------------------------

A--4---------------------------------------------------------

E-------5----4-----------------------------------------------

 

Verse 2

G------------------------------------------------------------

D------------------------------------------------------------

A--4---------------------------------------------------------

E-------5----------------------------------------------------

 

Verse 3

G------------------------------------------------------------

D------------------------------------------------------------

A--4---------------------------------------------------------

E-------5----4----2------------------------------------------

 

Guitar plays to measures

Verse 1 X2

Verse 2 X4

Verse 3 X2

Verse 2 X4

Verse 3 X4

Verse 1 X4

wait a measure

Verse 2 X2

Verse 1 til end

the end is a little off but it is really easy d=so you should just pick it up

 

 

Return to my Jimmy Eat World bass tabs page

The Tablature is Copyright its respective owners.

Sign Up For My Newsletter
Subscribe | Unsubscribe

Site Map | Disclaimer | Privacy Policy | Media Kit | Submissions/Corrections

Website © 2000-2014 mattsmusicpage.com. All rights reserved.

Legal & DMCA: Matt's Music Page has been providing lyrics and tabs in a legal way, paying royalties each year to a few organizations. Then, all lyrics and tabs were removed from the site. Now, there's a new owner to the site, which purchased it August 26, 2014, and he is in negotiation to obtain licensing from BMI at the moment. If you have a specific DMCA request -- please do not hesitate to contact me via the contact button on top. I will do my very best to keep this site fully legal.

Get our toolbar!

 

Vintage Rolling Stones magnets. 10 magnets total.
$7.0
Vintage Rolling Stones magnets. 10 magnets total.  picture


Rolling Stones Pins Jessica Rabbit Tongue Tattoo Pin
$5.99
Rolling Stones Pins Jessica Rabbit Tongue Tattoo Pin picture


MNIB -Rolling Stones- Musical Ornament-Guitar Shape - plays "I'm Free"
$4.99
MNIB -Rolling Stones- Musical Ornament-Guitar Shape - plays


LONDON 2012 OLYMPIC PIN BLACK POLICE HAT ROLLING STONES TONGUE
$6.5
LONDON 2012 OLYMPIC  PIN BLACK POLICE HAT ROLLING STONES TONGUE picture


DVD MUSIC THE ROLLING STONES HYDE PARK LIVE "SWEET SUMMER SUN" RARE.
$22.99
DVD MUSIC THE ROLLING STONES HYDE PARK LIVE