Your One-Stop Source For
Music Lyrics
Bass and Guitar Tabs
and More...
Music Lyrics Bass and Guitar Tabs

 

The Tabs Are Below

Learn To Read Tab
Chords Handbook
Corrections & Additions
Get Official Tab
JEW tabs @ 911Tabs

TABLE FOR GLASSES - Jimmy Eat World

-------------------------------------------------------------------------------

 

Tabbed by: Dan Shambro (AeroZepeln@aol.com)

 

This song requires drop D tuning

 

When bass enters at 1:47

G -----------------|-----------------|

D -----------------|-----------------| 4x

A -----------------|-----------------|

D -7-7-7-7-5-5-5-5-|-0-0-0-0-0-0-0-0-|

 

G -----------------|-----------------|

D -----------------|-----------------| 4x

A -----------------|-----------------|

D -2-2-2-2-2-2-2-2-|-5-5-5-5-5-5-5-5-|

 

G -----------------|-----------------|

D -----------------|---------------5-|

A -----------------|-5-5-5-5-5-5-7---|

D -0-0-0-0-0-0-0-0-|-----------------|

 

G -----------------|-----------------|

D -----------------|-----------------| 4x

A -----------------|-----------------|

D -5-5-5-5-5-5-5-5-|-5-5-5-5-5-5-5-5-|

 

G -----------------|

D -----------------|

A -----------------|

D 0----------------|

(Let ring)

 

 

Return to my Jimmy Eat World bass tabs page

The Tablature is Copyright its respective owners.

Sign Up For My Newsletter
Subscribe | Unsubscribe

Site Map | Disclaimer | Privacy Policy | Media Kit | Submissions/Corrections

Website © 2000-2014 mattsmusicpage.com. All rights reserved.

Legal & DMCA: Matt's Music Page has been providing lyrics and tabs in a legal way, paying royalties each year to a few organizations. Then, all lyrics and tabs were removed from the site. Now, there's a new owner to the site, which purchased it August 26, 2014, and he is in negotiation to obtain licensing from BMI at the moment. If you have a specific DMCA request -- please do not hesitate to contact me via the contact button on top. I will do my very best to keep this site fully legal.

Get our toolbar!