Your One-Stop Source For
Music Lyrics
Bass and Guitar Tabs
and More...
Music Lyrics Bass and Guitar Tabs

 

The Tabs Are Below

Learn To Read Tab
Chords Handbook
Corrections & Additions
Get Official Tab
JEW tabs @ 911Tabs

 

A SUNDAY - Jimmy Eat World

-------------------------------------------------------------------------------

 

Tabbed by: Dan Shambro (AeroZepeln@aol.com)

 

This song requires drop D tuning

 

Intro

G -----------|----------------|----------|---------|

D -----------|----------------|----------|---------|

A -----------|----------------|----------|---------|

D 0-0-0-0/---|12-12-12-12-----|9-9-9-9---|9-9-9-9--|

 

G -----------|----------------|-------------|----------|

D -----------|----------------|-------------|----------|

A -----------|----------------|-------------|----------|

D 0-0-0-0/---|12-12-14-14-----|7h9-9-9-9----|9-9-9-9---|

 

Verse 1 (play this 2 times)

G -----------|----------------|-------------|----------|

D -----------|----------------|-------------|----------|

A -----------|----------------|-------------|----------|

D 0-0-0-0/---|12-12-12-12-----|7h9-9-9-9----|9-9-9-9---|

 

Chorus 1

G ----------|----------|---------|----------|----------|---------|---------|----------|

D ----------|----------|---------|----------|----------|---------|---------|----------|

A ----------|----------|---------|----------|2-2-2-2---|2-2-4-5--|---------|----------|

D 4-4-4-4---|4-4-4-0---|2-2-2-2--|2-2-2-2---|----------|---------|5-5-5-5--|5-5-5-5---|

 

Verse 2 (play this 2 times)

G ----------|-----------------|-------------|----------|

D ----------|-----------------|-------------|----------|

A ----------|-----------------|-------------|----------|

D 0-0-0-0/--|12-12-12-12------|7h9-9-9-9----|9-9-9-9---|

 

Chorus 2

G ----------|----------|---------|----------|----------|---------|----------|----------|----------|

D ----------|----------|---------|----------|----------|---------|----------|----------|----------|

A ----------|----------|---------|----------|2-2-2-2---|2-2-4-5--|----------|----------|----------|

D 4-4-4-4---|4-4-4-0---|2-2-2-2--|2-2-2-2---|----------|---------|5-5-5-5---|5-5-5-5---|0---------|

(Let ring)

Interlude "The haze clears..." (Tacet 3 measures first time)

G ----------|--------------|---------|--------------|

D ----------|5-------------|---------|5-------------|

A ----------|--------------|---------|--------------|

D 0---------|--------------|0--------|--------------|

 

Bridge (Same as Intro)

G ----------|-----------------|----------|---------|

D ----------|-----------------|----------|---------|

A ----------|-----------------|----------|---------|

D 0-0-0-0/--|12-12-12-12------|9-9-9-9---|9-9-9-9--|

 

G -----------|----------------|-------------|-------|

D -----------|----------------|-------------|-------|

A -----------|----------------|-------------|-------|

D 0-0-0-0/---|12-12-14-14-----|7h9-9-9-9----|9-9-9-9|

 

Verse 3 (play this 2 times)

G -----------|----------------|-------------|----------|

D -----------|----------------|-------------|----------|

A -----------|----------------|-------------|----------|

D 0-0-0-0/---|12-12-12-12-----|7h9-9-9--9---|9-9-9-9---|

 

Chorus 3

G ----------|---------|----------|----------|---------|--------|----------|

D ----------|---------|----------|----------|---------|--------|----------|

A ----------|---------|----------|----------|2-2-2-2---|2-2-4-5|----------|

D 4-4-4-4|4-4-4-0|2-2-2-2|2-2-2-2|----------|----------|5-5-5-5|5-5-5-5---|

 

G ----------|----------|---------|----------|----------|-------|-------|----------|

D ----------|----------|---------|----------|----------|-------|-------|----------|

A ----------|----------|---------|----------|2-2-2-2---|2-2-4-5|-------|----------|

D 4-4-4-4|4-4-4-0|2-2-2-2|2-2-2-2|----------|----------|5-5-5-5|5-5-5-5|0---------|

(Let ring)

Interlude "The haze clears..." (Tacet 3 measures first time)

G ----------|--------------|---------|--------------|

D ----------|5-------------|---------|5-------------|

A ----------|--------------|---------|--------------|

D 0---------|--------------|0--------|--------------|

 

String solo/Chorus 4 (play this 4 times)

G ----------|---------|----------|----------|-------|-------|-------|

D ----------|---------|----------|----------|-------|-------|-------|

A ----------|---------|----------|----------|2-2-2-2|2-2-4-5|-------|

D 4-4-4-4|4-4-4-0|2-2-2-2|2-2-2-2|----------|-------|5-5-5-5|5-5-5-5|

 

Outro (play this 8 times)

G --------|--------|-------|--------|

D --------|--------|5-5-5-5|5-5-5-5-|

A --------|--------|-------|--------|

D 0-0-0-0-|0-0-0-0-|-------|--------|

 

End

G ---------|

D ---------|

A ---------|

D 0--------|

 

 

Return to my Jimmy Eat World bass tabs page

The Tablature is Copyright its respective owners.

Sign Up For My Newsletter
Subscribe | Unsubscribe

Site Map | Disclaimer | Privacy Policy | Media Kit | Submissions/Corrections

Website © 2000-2014 mattsmusicpage.com. All rights reserved.

Legal & DMCA: Matt's Music Page has been providing lyrics and tabs in a legal way, paying royalties each year to a few organizations. Then, all lyrics and tabs were removed from the site. Now, there's a new owner to the site, which purchased it August 26, 2014, and he is in negotiation to obtain licensing from BMI at the moment. If you have a specific DMCA request -- please do not hesitate to contact me via the contact button on top. I will do my very best to keep this site fully legal.

Get our toolbar!

 

1939 LYRIC THEATRE New York PHOTO
$5.83
1939 LYRIC THEATRE New York PHOTO picture


Star Spangled Banner or Marines Hymn lyrics signed by WWII Charles W. Lindberg
$10.0
Star Spangled Banner or Marines Hymn lyrics signed by WWII Charles W. Lindberg picture


OLD LARGE HISTORIC PHOTO OF THE LYRIC THEATRE, SYDNEY c1930s, WAR BONDS BOOTH
$7.42
OLD LARGE HISTORIC PHOTO OF THE LYRIC THEATRE, SYDNEY c1930s, WAR BONDS BOOTH picture


SONG OF REVOLUTION CARD SET WITH 13 MOST FAVORED COMMUNIST SONGS LYRICS + NOTES
$24.99
SONG OF REVOLUTION CARD SET WITH 13 MOST FAVORED COMMUNIST SONGS LYRICS + NOTES picture


OLD LARGE HISTORIC PHOTO OF THE LYRIC THEATRE, SYDNEY c1930s, WAR LOANS BOOTH
$7.42
OLD LARGE HISTORIC PHOTO OF THE LYRIC THEATRE, SYDNEY c1930s, WAR LOANS BOOTH picture