Your One-Stop Source For
Music Lyrics
Bass and Guitar Tabs
and More...
>Music Lyrics Bass and Guitar Tabs

 

The Tabs Are Below

Learn To Read Tab
Chords Handbook
Corrections & Additions
Get Official Tab
JEW tabs @ 911Tabs

Band: Jimmy Eat World

Song: Night Drive

Album: Futures

Bassist: Rick Burch

Tabbed by Dallas Reynolds

 

This song is easier to play in dropped-D tuning

 

Verse/Chorus

G:------------------------------------------------------------------------------------------

D:------------------------------------------------------------------------------------------

A:6-6-6-6-6-6-6-6-9-9-9-9-9-9-9-9---------------------------------------------------

D:---------------------------------------11-11-11-11-11-11-11-11-6-6-6-6-6-6-6-6

 

Bridge (Set my watch back---blood move)

G:----------------------------------------------------------------------------------------

D:----------------------------------------------------------------------------------------

A:6----------------9---------------------------------------------------------------------

D:----------------------------------11--------------------6------------------------------

 

Return to my Jimmy Eat World bass tabs page

The Tablature is Copyright its respective owners.

Sign Up For My Newsletter
Subscribe | Unsubscribe

Site Map | Disclaimer | Privacy Policy | Media Kit | Submissions/Corrections

Website © 2000-2014 mattsmusicpage.com. All rights reserved.

Legal & DMCA: Matt's Music Page has been providing lyrics and tabs in a legal way, paying royalties each year to a few organizations. Then, all lyrics and tabs were removed from the site. Now, there's a new owner to the site, which purchased it August 26, 2014, and he is in negotiation to obtain licensing from BMI at the moment. If you have a specific DMCA request -- please do not hesitate to contact me via the contact button on top. I will do my very best to keep this site fully legal.

Get our toolbar!

 

Precious Moments - 639923 -MIB- Lead Crystal Ornament -I'LL PLAY MY DRUM FOR HIM
$19.99
Precious Moments - 639923 -MIB- Lead Crystal Ornament -I'LL PLAY MY DRUM FOR HIM picture


Precious Moments - E2358 - Porcelain Bell - I'LL PLAY MY DRUM FOR HIM - 1982
$19.99
Precious Moments - E2358 - Porcelain Bell - I'LL PLAY MY DRUM FOR HIM - 1982 picture


Vintage Valentine with Native Beating a Drum - U.S.A.
$5.99
Vintage Valentine with Native Beating a Drum - U.S.A. picture


Wheaton Vintage Blue McGivers' American Army Bitters Drum Bottle 7.5"H 10.5"circ
$2.99
Wheaton Vintage Blue McGivers' American Army Bitters Drum Bottle 7.5


Black Premier 16" x 12" Tom Edmonton Alberta Transit Pipes Drums Made in England
$65.0
Black Premier 16