Your One-Stop Source For
Music Lyrics
Bass and Guitar Tabs
and More...
>Music Lyrics Bass and Guitar Tabs

 

The Tabs Are Below

Learn To Read Tab
Chords Handbook
Corrections & Additions
Get Official Tab
JEW tabs @ 911Tabs

JUST WATCH THE FIREWORKS - Jimmy Eat World

-------------------------------------------------------------------------------

 

Tabbed by: Dan Shambro (AeroZepeln@aol.com)

 

A "*" indicates the note should be played continuously until a change occurs

(i.e. chord progression, variation, tacet, etc.)

 

A "`" indicates the note should be let rung

 

Optional Intro (it sounds good, add it if you want)

G ---|---|---|

D ---|---|---|

A -4-|-1-|---|

E ---|---|-2-|

 

Verse 1

G ----|----|----|------|

D ----|----|----|------| 6x

A -4*-|-1*-|----|------|

E ----|----|-2*-|-0/2*-|

 

Chorus 1 (follow repeat signs)

G --------------------------|------------------|

D .--------------------------|-----------------.| 3x

A .--------------------------|-----------------.|

E -12-12-12-12--10/12-10/12-|-2-2-2-2-2-2-2-2--|

 

G -----|

D ----.| 3x

A ----.|

E -7*--|

 

Verse 2

G ----|----|----|------|

D ----|----|----|------| 4x

A -4*-|-1*-|----|------|

E ----|----|-2*-|-0/2*-|

 

Chorus 2 (follow repeat signs)

G --------------------------|------------------|

D .--------------------------|-----------------.| 3x

A .--------------------------|-----------------.|

E -12-12-12-12--10/12-10/12-|-2-2-2-2-2-2-2-2--|

 

G ----|----------|

D ----|----------|

A ----|----------|

E -7*-|-4-4-4-7'-|

 

G ---------|---------|---------|----|------|

D ---------|---------|---------|----|------| 6x

A ---------|---------|---------|----|------|

E -4-4-4-4-|-4-4-7-7-|-7-7-7-7-|-2*-|-0/2*-|

 

G ----------|

D ----------| 3x

A ----------|

E -4-4-4-7`-|

 

G ---------|---------|---------|

D ---------|---------|---------|

A ---------|---------|---------|

E -4-4-4-4-|-4-4-7-7-|-7-7-7-7-|

 

Outro (repeat a lot)

G ----|------|

D ----|------|

A ----|------|

E -2*-|-0/2*-|

 

End

G ----------|

D ----------|

A ----------|

E -4-4-4-7`-|

 

(Email any questions or comments to me)

 

 

Return to my Jimmy Eat World bass tabs page

The Tablature is Copyright its respective owners.

Sign Up For My Newsletter
Subscribe | Unsubscribe

Site Map | Disclaimer | Privacy Policy | Media Kit | Submissions/Corrections

Website © 2000-2014 mattsmusicpage.com. All rights reserved.

Legal & DMCA: Matt's Music Page has been providing lyrics and tabs in a legal way, paying royalties each year to a few organizations. Then, all lyrics and tabs were removed from the site. Now, there's a new owner to the site, which purchased it August 26, 2014, and he is in negotiation to obtain licensing from BMI at the moment. If you have a specific DMCA request -- please do not hesitate to contact me via the contact button on top. I will do my very best to keep this site fully legal.

Get our toolbar!

 

VINTAGE SORRENTO MUSIC JEWELRY BOX
$45.0
VINTAGE SORRENTO MUSIC JEWELRY BOX picture


VINTAGE LACQUERED MUSIC BOX JAPAN
$25.99
VINTAGE LACQUERED MUSIC BOX JAPAN picture


Vintage Kehlsteinhaus Bavaria Germany Colorscope Cow Bell View Master Music Box
$8.99
Vintage Kehlsteinhaus Bavaria Germany Colorscope Cow Bell View Master Music Box picture


VINTAGE SCHMIDT Signed Collectible Musical Turning Clown
$9.99
VINTAGE  SCHMIDT Signed Collectible Musical Turning Clown picture


Vintage - Linen - Postcard - Stage - Radio City Music Hall - New York City
$3.75
Vintage - Linen - Postcard - Stage - Radio City Music Hall - New York City   picture