Your One-Stop Source For
Music Lyrics
Bass and Guitar Tabs
and More...
Music Lyrics Bass and Guitar Tabs

 

The Tabs Are Below

Learn To Read Tab
Chords Handbook
Corrections & Additions
Get Official Tab
JEW tabs @ 911Tabs

Band: Jimmy Eat World - http://www.jimmyeatworld.net

Song: Goodbye Sky Harbor

Album: Clarity

Tabbed By: Eric Liddle - enjoi83@shaw.ca

 

Verse Prt1. (X 4)

G |--------------------------------------------------------|

D |--------------------------------------------------------|

A |--------------------------------------------------------|

D |-9-9-7-9-9--00--00--00--00--00--00--00--00--0-----------|

 

Verse Prt2.

G |--------------------------------------------------------|

D |--------------------------------------------------------|

A |--------------------------------------------------------|

D |-9-9-7-9-9--55--55--55--55--55--55--55--55--5-----------|

 

Pre Chorus

G |------------------|

D |------------------|

A |------------------|

D |-9-9-9-7-9-9-7----|

 

Chorus (X 2)

After the chorus there is a little guitar part where there is no bass.

G |-----------------------------------------------------------------|

D |-----------------------------------------------------------------|

A |-2-2-2---------------------------2-2-2---------------------------|

D |-------0-0-0-0-0-5-5-5-0-0-0-0-0-------0-0-0-0-0-7-7-7-7-7-7-7-7-|

 

Bridge (The part that lasts for like, 14 minutes)

G |-----------------------------------------------------------------|

D |-----------------------------------------------------------------|

A |-----------------------------------------------------------------|

D |-9-9-9-0--0--0--0--0--9-9-9-0--0--0--0--0--9-9-9-0--0--0--0--0---|

 

Bridge Continued (Repeat as necessary)

G |----------------------------------------|

D |----------------------------------------|

A |----------------------------------------|

D |-7-7-7-0-0-0-0-0-7-7-7-0-0-0-0-0--------|

 

Song structure:

Verse Prt1.

Verse Prt2.

Pre-Chorus

Chorus

Bass break

Verse Prt1.

Verse Prt2.

Pre-Chorus

Chorus

Bridge (for the rest of the song) ....

This is my 2nd tab ever..so don’t blow up at me if I messed up!

 

 

Return to my Jimmy Eat World bass tabs page

The Tablature is Copyright its respective owners.

Sign Up For My Newsletter
Subscribe | Unsubscribe

Site Map | Disclaimer | Privacy Policy | Media Kit | Submissions/Corrections

Website © 2000-2014 mattsmusicpage.com. All rights reserved.

Legal & DMCA: Matt's Music Page has been providing lyrics and tabs in a legal way, paying royalties each year to a few organizations. Then, all lyrics and tabs were removed from the site. Now, there's a new owner to the site, which purchased it August 26, 2014, and he is in negotiation to obtain licensing from BMI at the moment. If you have a specific DMCA request -- please do not hesitate to contact me via the contact button on top. I will do my very best to keep this site fully legal.

Get our toolbar!

 

Hard Rock Pin Las Vegas 4th of july red white and blue guitar
$5.0
Hard Rock Pin Las Vegas 4th of july red white and blue guitar picture


Hard Rock Pin Hollywood Fl Bell Girl with dice luggage and guitar
$5.0
Hard Rock Pin Hollywood Fl Bell Girl with dice luggage and guitar picture


Hard Rock Pin Las Vegas King of Clubs Guitar rare only 3 lines of info on back
$5.0
Hard Rock Pin Las Vegas King of Clubs Guitar rare only 3 lines of info on back picture


Hard Rock Pin Edmonton guitar pin
$5.0
Hard Rock Pin Edmonton guitar pin picture


Lladro Guitar Boy #4614 - Beautiful Piece of Lladro
$109.0
Lladro Guitar Boy #4614 - Beautiful Piece of Lladro picture