Your One-Stop Source For
Music Lyrics
Bass and Guitar Tabs
and More...
Music Lyrics Bass and Guitar Tabs

 

The Tabs Are Below

Learn To Read Tab
Chords Handbook
Corrections & Additions
Get Official Tab
JEW tabs @ 911Tabs

Title: Futures

Artist: Jimmy Eat World

Album: Futures

 

Instrument: 4 String Bass

 

Tabbed by: Sonny (sonnyfrazee@yahoo.com)

 

Tuning: 1/2 Step Down (Db Ab Db Gb)

 

I just saw Jimmy Eat World live, they were amazing inspired me to tab this out. Alright a little notes the tuning for this is correct, Jim and Tom play the songs with capos on the second fret, not that it pretains to bass. Ok enjoy!

 

Verse: 14X

|------------------------||

|------------------------||

|------------------------||

|-2-2---2-2---2-2---2-2--||

 

Pre Chorus: \"My darling\" 2X

|--------------------------------------------------||

|--------------------------------------------------||

|-------------/7-7--9-7\\---------------------------||

|-2-2---2-2----------------------------------------||

 

Chorus:

|----------------|----------------|----------------|----------------||

|----------------|----------------|----------------|----------------||

|--0--0--0--0----|--0--0--0--0----|--0--0--0--0----|--0--0--0--0----||

|----------------|----------------|----------------|----------------||

 

|----------------|----------------|----------------|----------------||

|----------------|----------------|----------------|----------------||

|----------------|----------------|----------------|----------------||

|--2--2--2--2----|--2--2--2--2----|--2--2--2--2----|--2--2--2--2----||

 

|----------------|----------------|----------------|----------------||

|----------------|----------------|----------------|----------------||

|--0--0--0--0----|--0--0--0--0----|--0--0--0--0----|--0--0--0--0----||

|----------------|----------------|----------------|----------------||

 

|----------------|----------------|----------------|----------------||

|----------------|----------------|----------------|----------------||

|----------------|----------------|----------------|--/7-7--9-7\\----||

|--2--2--2--2----|--2--2--2--2----|--2--2--2--2----|----------------||

 

Verse: 14X

|------------------------||

|------------------------||

|------------------------||

|-2-2---2-2---2-2---2-2--||

 

Pre Chorus: \"My darling\" 2X

|--------------------------------------------------||

|--------------------------------------------------||

|-------------/7-7--9-7\\---------------------------||

|-2-2---2-2----------------------------------------||

 

Chorus 1x

 

Rest

 

Bridge: 3X

|----------------|----------------|----------------|----------------||

|----------------|----------------|-2-2-2-2-2-2-2-2|----------------||

|-0-0-0-0-0-0-0-0|-2-2-2-2-2-2-2-2|----------------|-4-4-4-4-4-4-4-4||

|----------------|----------------|----------------|----------------||

 

Post Bridge:

|-------------------|-------------------|-------------------|---------------------||

|-------------------|-------------------|-------------------|---------------------||

|-0-0--0-0--0-0--0-0|-2-2--2-2--2-2--2-2|-------------------|---------/7-7--9-7\\\\-||

|-------------------|-------------------|-2-2--2-2--2-2--2-2|2-2--2-2-------------||

-

Last Chorus:

|----------------|----------------|----------------|----------------||

|----------------|----------------|----------------|----------------||

|--0--0--0--0----|--0--0--0--0----|--0--0--0--0----|--0--0--0--0----||

|----------------|----------------|----------------|----------------||

 

|----------------|----------------|----------------|----------------||

|----------------|----------------|----------------|----------------||

|----------------|----------------|----------------|----------------||

|--2--2--2--2----|--2--2--2--2----|--2--2--2--2----|--2--2--2--2----||

 

|----------------|----------------|----------------|----------------||

|----------------|----------------|----------------|----------------||

|--0--0--0--0----|--0--0--0--0----|--0--0--0--0----|--0--0--0--0----||

|----------------|----------------|----------------|----------------||

 

|----------------|----------------|----------------|----------------||

|----------------|----------------|----------------|----------------||

|----------------|----------------|----------------|----------------||

|--2--2--2--2----|--2--2--2--2----|--2--2--2--2----|--6--6--6--6----||

 

|----------------|----------------|----------------||

|----------------|----------------|----------------||

|----------------|--0--0--0--0----|--2--2--2--2----||

|--6--6--6--6----|----------------|----------------||

 

Verse: 3X

 

End on

 

 

|-------||

|-------||

|-------||

|--2~---||

 

Return to my Jimmy Eat World bass tabs page

The Tablature is Copyright its respective owners.

Sign Up For My Newsletter
Subscribe | Unsubscribe

Site Map | Disclaimer | Privacy Policy | Media Kit | Submissions/Corrections

Website © 2000-2014 mattsmusicpage.com. All rights reserved.

Legal & DMCA: Matt's Music Page has been providing lyrics and tabs in a legal way, paying royalties each year to a few organizations. Then, all lyrics and tabs were removed from the site. Now, there's a new owner to the site, which purchased it August 26, 2014, and he is in negotiation to obtain licensing from BMI at the moment. If you have a specific DMCA request -- please do not hesitate to contact me via the contact button on top. I will do my very best to keep this site fully legal.

Get our toolbar!

 

BRAND NEW KEY OF C HOHNER MINI HARMONICA HARP KEYRING KEYCHAIN KEY RING CHAIN
$8.21
BRAND NEW KEY OF C HOHNER MINI HARMONICA HARP KEYRING KEYCHAIN KEY RING CHAIN picture


RISING SONS BAND *2X3 FRIDGE MAGNET* VOCALS GUITAR MANDOLIN DOBRO HARMONICA SONG
$3.99
RISING SONS BAND *2X3 FRIDGE MAGNET* VOCALS GUITAR MANDOLIN DOBRO HARMONICA SONG picture


Vtg Christmas Angel Baby Girl W Harmonica Boy W Book SET OF 2 W GOLD WINGS
$125.0
Vtg Christmas Angel Baby Girl W Harmonica Boy W Book SET OF 2 W GOLD WINGS  picture


Beautiful Hand Carved Jewelry Trinket Jewelry Box Harmonica Case Bone And Brass
$14.5
Beautiful Hand Carved Jewelry Trinket Jewelry Box Harmonica Case Bone And Brass picture


BRAND NEW* HOHNER BOB DYLAN SIGNATURE LIMITED EDITION HARMONICA COLLECTORS ITEM
$140.19
BRAND NEW* HOHNER BOB DYLAN SIGNATURE LIMITED EDITION HARMONICA COLLECTORS ITEM picture