Your One-Stop Source For
Music Lyrics
Bass and Guitar Tabs
and More...
Music Lyrics Bass and Guitar Tabs

 

The Tabs Are Below

Learn To Read Tab
Chords Handbook
Corrections & Additions
Get Official Tab
JEW tabs @ 911Tabs

FOR ME THIS IS HEAVEN - Jimmy Eat World

-------------------------------------------------------------------------------

 

Tabbed by: Greg (Bigwig305@aol.com)

 

one dash = one sixteenth note

~ = let ring

In 3/4 time

 

 

Pre-Intro (Guitar only) "The first star I see..."

 

Intro

Counting:

1 & 2 & 3 & 1 & 2 & 3 & 1 & etc...

G|------------|------------|------------|------------|

D|------------|------------|------------|------------| 2x

A|------------|------------|------------|------------|

E|----4---4---|6---6---6-6-|--2-2---2---|--2-2---2---|

 

Verse

G|------------|------------|------------|------------|

D|------------|------------|------------|------------| 4x

A|------------|------------|------------|------------|

E|----4---4---|6---6---6-6-|--2-2---2---|--2-2---2---|

 

Chorus ("When the time we have now ends...")

G|------------|------------|------------|------------|

D|------------|------------|------------|------------| 4x

A|------------|------------|------------|------------|

E|4~------4---|6---6---6-6-|--2-2---2---|--2-2---2---|

 

Break (no drums or bass)

G|------------|-------------|-----------|------------|

D|----------( G u i t a r s o l i )--------|

A|------------|-------------|-----------|------------|

E|4~----------|-------------|-----------|------------|

 

Verse (same)

 

Chorus (same)

 

Guitar soli

G|------------|------------|------------|------------|

D|------------|------------|------------|------------|

A|4-4-4-4-4-4-|4-4-4-4-4-4-|------------|------------|

E|------------|------------|2-2-2-2-2-2-|2-2-2-2-2-2-|

 

(con't)

G|------------|------------|------------|------------|

D|------------|------------|------------|------------| 2x

A|1-1-1-1-1-1-|1-1-1-1-1-1-|------------|------------|

E|------------|------------|2-2-2-2-2-2-|2-2-2-2-2-2-|

 

Piano solo

G|------------|------------|------------|------------|

D|------------|------------|------------|------------|

A|4-4-4-4-4-4-|4-4-4-4-4-4-|------------|------------|

E|------------|------------|2-2-2-2-2-2-|2-2-2-2-2-2-|

 

(con't)

G|------------|------------|------------|------------|

D|------------|------------|------------|------------| 2x

A|1-1-1-1-1-1-|1-1-1-1-1-1-|------------|------------|

E|------------|------------|2-2-2-2-2-2-|2-2-2-2-2-2-|

 

Bridge ("I close my eyes and believe...")

G|------------|------------|------------|------------|

D|------------|------------|------------|------------| 2x

A|1-1-1-1-1-1-|1-1-1-1-1-1-|------------|------------|

E|------------|------------|2-2-2-2-2-2-|2-2-2-2-2-2-|

 

Chorus (same)

 

Ending (guitar only)

G|------------|------------|------------|------------|

D|------( G u i t a r e n d i n g )------|

A|------------|------------|------------|------------|

E|4~~---------|------------|------------|------------|

 

Structure:

Pre-Intro (No bass)

Intro

Verse 1

Chorus

Break - no bass or drums

Verse 2

Chorus

Guitar soli

Piano solo

Bridge

Chorus

Ending - no bass or drums

 

 

Return to my Jimmy Eat World bass tabs page

The Tablature is Copyright its respective owners.

Sign Up For My Newsletter
Subscribe | Unsubscribe

Site Map | Disclaimer | Privacy Policy | Media Kit | Submissions/Corrections

Website © 2000-2014 mattsmusicpage.com. All rights reserved.

Legal & DMCA: Matt's Music Page has been providing lyrics and tabs in a legal way, paying royalties each year to a few organizations. Then, all lyrics and tabs were removed from the site. Now, there's a new owner to the site, which purchased it August 26, 2014, and he is in negotiation to obtain licensing from BMI at the moment. If you have a specific DMCA request -- please do not hesitate to contact me via the contact button on top. I will do my very best to keep this site fully legal.

Get our toolbar!

 

Hard Rock Pin Las Vegas 4th of july red white and blue guitar
$5.0
Hard Rock Pin Las Vegas 4th of july red white and blue guitar picture


Hard Rock Pin Hollywood Fl Bell Girl with dice luggage and guitar
$5.0
Hard Rock Pin Hollywood Fl Bell Girl with dice luggage and guitar picture


Hard Rock Pin Las Vegas King of Clubs Guitar rare only 3 lines of info on back
$5.0
Hard Rock Pin Las Vegas King of Clubs Guitar rare only 3 lines of info on back picture


Hard Rock Pin Edmonton guitar pin
$5.0
Hard Rock Pin Edmonton guitar pin picture


Lladro Guitar Boy #4614 - Beautiful Piece of Lladro
$109.0
Lladro Guitar Boy #4614 - Beautiful Piece of Lladro picture