Your One-Stop Source For
Music Lyrics
Bass and Guitar Tabs
and More...
Music Lyrics Bass and Guitar Tabs

 

The Tabs Are Below

Learn To Read Tab
Chords Handbook
Corrections & Additions
Get Official Tab
JEW tabs @ 911Tabs

BELIEVE IN WHAT YOU WANT - Jimmy Eat World

-------------------------------------------------------------------------------

 

Tabbed by Luc-E

lgjskywalker82@home.com

Posted By - Blink_Chick

 

(D A D G B E)

 

Intro and Verse:

-------------------------------------------------

-------------------------------------------------

-10-10-10-10\12-9-9-9-9-10-10-10-10-10-10-10-10--

-x--x--x--x-\x--x-x-x-x-8--8--8--8--8--8--8--8---

-8--8--8--8-\10-8-8-8-8-8--8--8--8--8--8--8--8---

------------------------8--8--8--8--8--8--8--8---

 

Chorus:

---------------------------------------------------------

-----------------3-3-3-3-3-3-3-3-------------------------

-5-5-5-5-5-5-5-5-2-2-2-2-2-2-2-2-10-10-10-10-10-10-10-10-

-3-3-3-3-3-3-3-3-0-0-0-0-0-0-0-0-8--8--8--8--8--8--8--8--

-3-3-3-3-3-3-3-3-0-0-0-0-0-0-0-0-8--8--8--8--8--8--8--8--

-3-3-3-3-3-3-3-3-0-0-0-0-0-0-0-0-8--8--8--8--8--8--8--8--

 

---------------------

---------------------

-7-7-7-7\10-10-10-10-

-5-5-5-5\8--8--8--8--

-5-5-5-5\8--8--8--8--

-5-5-5-5\8--8--8--8--

 

Bridge:

-----------------------------------------

-----------------------------------------

-2-2-2-2-2-2-2-2-10-10-10-10-10-10-10-10-

-0-0-0-0-0-0-0-0-8--8--8--8--8--8--8--8--

-0-0-0-0-0-0-0-0-8--8--8--8--8--8--8--8--

-0-0-0-0-0-0-0-0-8--8--8--8--8--8--8--8--

 

---

---

-5-

-3-

-3-

-3-

 

 

Return to my Jimmy Eat World tabs page

The Tablature is Copyright its respective owners.

Sign Up For My Newsletter
Subscribe | Unsubscribe

Site Map | Disclaimer | Privacy Policy | Media Kit | Submissions/Corrections

Website © 2000-2014 mattsmusicpage.com. All rights reserved.

Legal & DMCA: Matt's Music Page has been providing lyrics and tabs in a legal way, paying royalties each year to a few organizations. Then, all lyrics and tabs were removed from the site. Now, there's a new owner to the site, which purchased it August 26, 2014, and he is in negotiation to obtain licensing from BMI at the moment. If you have a specific DMCA request -- please do not hesitate to contact me via the contact button on top. I will do my very best to keep this site fully legal.

Get our toolbar!