Your One-Stop Source For
Music Lyrics
Bass and Guitar Tabs
and More...
Music Lyrics Bass and Guitar Tabs

 

The Tabs Are Below

Learn To Read Tab
Chords Handbook
Corrections & Additions
Get Official Tab
JEW tabs @ 911Tabs

Verse 1

----|----------|-----------|-----------|----|----|----|

----|----------|-----------|-----------|----|----|----|

-5*-|-3*-0h3p0-|-1-1-1-3-1-|-1-1-1-3-1-|-5*-|-3*-|-1*-|

----|----------|-----------|-----------|----|----|----|

 

----|----|-----------|-----------|

----|----|-----------|-----------|

-5*-|-3*-|-1-1-1-3-1-|-1-1-1-3-1-|

----|----|-----------|-----------|

 

----|----------|-----------|-----------|

----|----------|-----------|-----------|

-5*-|-3*-0h3p0-|-1-1-1-3-1-|-1-1-1-1-1-|

----|----------|-----------|-----------|

 

----|----------|-----------|-----------|----|----|----|

----|----------|-----------|-----------|----|----|----|

-5*-|-3*-0h3p0-|-1-1-1-3-1-|-1-1-1-3-1-|-5*-|-3*-|-1*-|

----|----------|-----------|-----------|----|----|----|

 

Chorus 1

----|----|----|----|----|

----|----|----|----|----| 2x

----|----|-1*-|----|-1*-|

-3*-|-0*-|----|-5*-|----|

 

Verse 2

----|----------|-----------|-----------|----|----|----|

----|----------|-----------|-----------|----|----|----| 2x

-5*-|-3*-0h3p0-|-1-1-1-3-1-|-1-1-1-3-1-|-5*-|-3*-|-1*-|

----|----------|-----------|-----------|----|----|----|

 

Chorus 2 (same as 1)

 

Interlude ("Your camera flash?")

----|----|

----|----| 4x

----|-1*-|

-0*-|----|

 

Verse 3

----|----------|-----------|-----------|

----|----------|-----------|-----------|

-5*-|-3*-0h3p0-|-1-1-1-3-1-|-1-1-1-3-1-|

----|----------|-----------|-----------|

----|----------|----|

----|----------|----|

-5*-|-3*-0h3p0-|-1*-|

----|----------|----|

 

Chorus 3 (same as 1)

 

End

----|

----|

----|

-3`-|

 

 

Return to my Jimmy Eat World bass tabs page

The Tablature is Copyright its respective owners.

Sign Up For My Newsletter
Subscribe | Unsubscribe

Site Map | Disclaimer | Privacy Policy | Media Kit | Submissions/Corrections

Website © 2000-2014 mattsmusicpage.com. All rights reserved.

Legal & DMCA: Matt's Music Page has been providing lyrics and tabs in a legal way, paying royalties each year to a few organizations. Then, all lyrics and tabs were removed from the site. Now, there's a new owner to the site, which purchased it August 26, 2014, and he is in negotiation to obtain licensing from BMI at the moment. If you have a specific DMCA request -- please do not hesitate to contact me via the contact button on top. I will do my very best to keep this site fully legal.

Get our toolbar!