Your One-Stop Source For
Music Lyrics
Bass and Guitar Tabs
and More...
Music Lyrics Bass and Guitar Tabs

 

The Tabs Are Below

Learn To Read Tab
Chords Handbook
Corrections & Additions
Get Official Tab
Jet tabs @ 911Tabs

Intro/Verse

|--------------| |-------------------|

|--------------| |-14-14-14-14-14-14-|

|--------------| Guitar 1 |-xx-xx-xx-xx-xx-xx-| Guitar 2

|-6-8-8-6--9-8-| |-11-11-11-11-11-11-|

|-4-4-4-4--4-4-| |-------------------|

|--------------| |-------------------|

 

 

Prechorus

|--------------------|-2-2-2------8-8-8-8-8------------9-|

|-4-6---6-4----------|-2-2-2------4-4-4-4-4--------------|

|-4-6---6-4----------|-x-x-x------x-x-x-x-x--several-----|

|-4-6---6-4--4-2-4-2-|-4-4-4--6-6-6-6-6-6-6---times------|

|-2-4---4-2--4-2-4-2-|-4-4-4--6-6-6-6-6-6-6--------------|

|------------2-0-2-0-|-2-2-2--4-4-4-4-4-4-4--------------|

 

Guitar 1 Guitar 2

|---------------|-----------------------| |----------------------|

|---------------|-----------------------| |----------------------|

|---------------|-------4---------------| |----------------------|

|---6---4-------|---6-------------------| |----------------------|

|-4---4---4-7-4-|-4---4---4-7-4-4-4-2-4-| |-4-4-2-4-2b-----------|

|---------------|-----------------------| |------------0-2-2-0-2-|

 

 

Chorus

|------------0--2-2-0-2-0-0-|-2-2-2------8-8-8-8-8------------9-|

|-6-6-4-6-4--0--2-2-0-2-0-0-|-2-2-2------4-4-4-4-4--------------|

|-6-6-4-6-4--x--x-x-x-x-x-x-|-x-x-x------x-x-x-x-x--several-----|

|-6-6-4-6-4--2--4-4-2-4-2-2-|-4-4-4--6-6-6-6-6-6-6---times------|

|-4-4-2-4-2--2--4-4-2-4-2-2-|-4-4-4--6-6-6-6-6-6-6--------------|

|------------0--2-2-0-2-0-0-|-2-2-2--4-4-4-4-4-4-4--------------|

 

Verse

 

Prechorus (With keyboard in the back)

 

Chorus

 

Solo

|----------------------------------------------------|

|----------------------------------------------------|

|----------------------------------------------------| Guitar 1

|-6-6-8p6-6---6-6-8p6-6---6-6-8p6-6------------------|

|-4-4-4---4---4-4-4---4---4-4-4---4------------7-7-9-|

|------------------------------------0-1-2-2-2-5-5-7-|

 

|-9-9-------9-9--------9-9-------9-9-------9-9-9-------9-9-------|

|-9-9-------9-9--------9-9-------9-9-------9-9-9-------9-9-------|

|-----11b13-----11b13------11b13-----11b13-------11b13-----11b13-| Guitar 2

|----------------------------------------------------------------|

|----------------------------------------------------------------|

|----------------------------------------------------------------|

 

|-9-9-------9-------9----------11b-9----9--x-x--11b-9----9--x-x--11b--9-9-|

|-9-9-------9-------9----------12b---------x-x--12b---------x-x--12b--9-9-|

|-----11b13---11b13---11b13----------11---------------11------------------|

|-------------------------------------------------------------------------|

|-------------------------------------------------------------------------|

|-------------------------------------------------------------------------|

 

|-11b--9--11b--9--11b--9-9---14b16-14-12-14--14b16r14-12-14b16-12---------|

|-12b--9--12b--9--12b--9-9----------------------------------------14-12---|

|-------------------------------------------------------------------------|

|-------------------------------------------------------------------------|

|-------------------------------------------------------------------------|

|-------------------------------------------------------------------------|

 

|-------------------------------------------------------------------------|

|-14b15r14--12------------------------------------------------------------|

|--------------13p11-9-11--11b13r11--9-11-9--11b13--11p9---------11-9-----|

|--------------------------------------------------------11-9-11----------|

|-------------------------------------------------------------------------|

|-------------------------------------------------------------------------|

 

|-----------------------------------------------9-------------------------|

|-------------------------------------------------------------------------|

|-9b------------9b----------11-9--9b-9b-----9b-------9b-9b-----9b-9-11-9b-|

|-9b--11-9-11\--9b--11-9-11-------9b----11--9b---11--9b----11--9b------9b-|

|-------------------------------------------------------------------------|

|-------------------------------------------------------------------------|

 

Chorus

 

Outro

|-2-2-2------8-8-8-8-8------------------0--|

|-2-2-2------4-4-4-4-4------------------0--|

|-x-x-x------x-x-x-x-x--several----6-6--x--|

|-4-4-4--6-6-6-6-6-6-6---times-----6-6--2--|

|-4-4-4--6-6-6-6-6-6-6-------------4-4--2--|

|-2-2-2--4-4-4-4-4-4-4------------------0--|

 

 

Return to my Jet tabs page

The Tablature is Copyright its respective owners.

Sign Up For My Newsletter
Subscribe | Unsubscribe

Site Map | Disclaimer | Privacy Policy | Media Kit | Submissions/Corrections

Website © 2000-2014 mattsmusicpage.com. All rights reserved.

Legal & DMCA: Matt's Music Page has been providing lyrics and tabs in a legal way, paying royalties each year to a few organizations. Then, all lyrics and tabs were removed from the site. Now, there's a new owner to the site, which purchased it August 26, 2014, and he is in negotiation to obtain licensing from BMI at the moment. If you have a specific DMCA request -- please do not hesitate to contact me via the contact button on top. I will do my very best to keep this site fully legal.

Get our toolbar!