Your One-Stop Source For
Music Lyrics
Bass and Guitar Tabs
and More...
Music Lyrics Bass and Guitar Tabs

 

The Jet Guitar Tabs Are Below

Learn To Read Tab
Chords Handbook
Corrections & Additions
Get Official Tab
Jet tabs @ 911Tabs

This is a great acoustic song Jet does...I saw an earlier version that was wrong,

so this is my correction of it + this sweet little guitar solo-type thing Cameron

plays...Beautiful song.

 

"Cigarettes and Cola" by Jet

Tempo = 60 bpm

[INTRO]

Strum A until you get to the right timing for yourself

[VERSE 1]

A E D

Well it's too late, little girl, for stopping

Bm Dsus2 E

I cross my heart and I hope that I will die

A E D

I don't want anyone to find us

Bm Dsus2 E

I put my hand on your mouth so you won't tell

[CHORUS]

A E

Cigarettes and cola

D A

Your mama never told you

A E D A

That your daddy, he ain’t holdin' you tonight

[VERSE 2]

A E D

And I don't want your kisses, but I need 'em

Bm Dsus2 E

So take my hand and we'll talk, nothing else

[GUITAR SOLO]

A E A A

|------9--------------7----------9---------9---7---------|

|9h10------10--10p9-------9--9h10------------------9-----|

|--------------------------------------------------------|

|--------------------------------------------------------|

|--------------------------------------------------------|

|--------------------------------------------------------|

Bm A E E

|------------------------------5-----7----4---5---7---5--|

|10---9--7--9---7---5--7/9-------------------------------|

|--------------------------------------------------------|

|--------------------------------------------------------|

|--------------------------------------------------------|

|--------------------------------------------------------|

[CHORUS]

A E

Cigarettes and cola

D A

Your mama never told you

A E D A

That your daddy, he ain’t holdin' you tonight

[CHORUS 2]

A E

And I don't know how to tell you

D A

To tell you that I love you

A E D A

And your daddy, he ain’t holdin' you tonight

 

The solo isn't timed very well, so listen to the song for timing.

Other that, everything should be right. Peace.

 

Return to my Jet Guitar Tabs page

The Tablature is Copyright its respective owners.

Sign Up For My Newsletter
Subscribe | Unsubscribe

Site Map | Disclaimer | Privacy Policy | Media Kit | Submissions/Corrections

Website © 2000-2014 mattsmusicpage.com. All rights reserved.

Get our toolbar!