Your One-Stop Source For
Music Lyrics
Bass and Guitar Tabs
and More...
Music Lyrics Bass and Guitar Tabs

 

The Tabs Are Below

Learn To Read Tab
Chords Handbook
Corrections & Additions
Get Official Tab
Jet tabs @ 911Tabs

Jet

Are You Gonna Be My Girl

 

 

Tabbed by: GuitarAnarchist

Comments or corrections: thegrammarcop@hotmail.com

 

Standard Tuning: EADGBe

b=bend up one note

s=slide

 

 

Intro

E----------------------------------------------------------------

B----------------------------------------------------------------

G----------------------------------------------------------------

D----------------------------------------------------------------

A--------------------3--------------------3--5b-6b-5-3-------3---

E----5-5-5---5-5-5-3----x3 then--------5-----------------5-5-----

 

E----------------------------------------------------------------

B----------------------------------------------------------------

G----------------------------------------5--7b-8b-7-5--------5---

D----------------------------------5s7------------------7-7------

A--------------------3-------------------------------------------

E----5-5-5---5-5-5-3----x3 then----------------------------------

 

 

Riff 1

E:-------------------|

B:-------------------|

G:---5-7-7-5---------|

D:-7-5-7-7-5-7-5-7---|

A:-7-3-5-5-3-7-5-7---|

E:-5---------5-3-5---|

A-C-D-D-C-A-G-A

So one two three, take my hand and come with me

Because you look so fine

That I really wanna make you mine

Riff 2

E:-----------------------------|

B:-----------------------------|

G:------------------------(s)--|

D:--7-7-7--7-7-7-7-7--5—7-(t)--|

A:--7-7-7--7-7-7-7-7--5—7-(o)--|

E:--5-5-5--5-5-5-5-5—-3-5-(p)--|

A G A

I say you look so fine

That I really wanna make you mine

Riff 2

E:-----------------------------|

B:-----------------------------|

G:------------------------(s)--|

D:--7-7-7--7-7-7-7-7--5—7-(t)--|

A:--7-7-7--7-7-7-7-7--5—7-(o)--|

E:--5-5-5--5-5-5-5-5—-3-5-(p)--|

A G A

Four five six, come on and get your kicks

Now you don't need the money

When you look like that, do ya honey?

Riff 2

E:-----------------------------|

B:-----------------------------|

G:-----------------------------|

D:--7-7-7--7-7-7-7-7--5—7------|

A:--7-7-7--7-7-7-7-7--5—7------|

E:--5-5-5--5-5-5-5-5—-3-5------|

A G A

 

 

Riff 1

E:-------------------|

B:-------------------|

G:---5-7-7-5---------|

D:-7-5-7-7-5-7-5-7---|

A:-7-3-5-5-3-7-5-7---|

E:-5---------5-3-5---|

A-C-D-D-C-A-G-A

 

 

Riff 3

E:--------------------------------------|

B:--------------------------------------|

G:--7-------7-------7--------3----------|

D:--7-------7-------7--------5--3-------|

A:--5-------5-------5--------5--5-------|

E:------------------------------5-------|

D D D C G

 

Big black boots

Long brown hair

She's so sweet with her

get back stare

 

 

Riff 4

E:-------------------------------------------------------------------------|

B:-------------------------------------------------------------------------|

G:--------------------5-5-5--5-5-5-5-5--7-7-7--7-7-7-7-7-------------------|

D:--7-7-7--7-7-7-7-7--5-5-5--5-5-5-5-5--7-7-7--7-7-7-7-7--7-7-7--7-7-7-7-7-|

A:--7-7-7--7-7-7-7-7--3-3-3--3-3-3-3-3--5-5-5--5-5-5-5-5--7-7-7--7-7-7-7-7-|

E:--5-5-5--5-5-5-5-5--------------------------------------5-5-5--5-5-5-5-5-|

A C D A

 

Well I could see, you home with me, But you were with another man, yeah!

I know we ain't got much to say, Before I let you get away, yeah!

 

 

Riff 5

E:--------------------|

B:--------------------|

G:--9-9-9--9-9-12-12--| (let last chord ring before lyrics)

D:--9-9-9--9-7-12—12--|

A:--7-7-7--7-7-10-10--|

E:--------------------|

E G

I said, are you gonna be my girl

 

Riff 6

E:-----------------------|

B:-----------------------|

G:--------------------5--| x3

D:-7-7-7--7-7-7-7-7---5--|

A:-7-7-7--7-7-7-7-7---3--|

E:-5-5-5--5-5-5-5-5------|

A C

 

 

Riff 1

E:-------------------|

B:-------------------|

G:---5-7-7-5---------|

D:-7-5-7-7-5-7-5-7---|

A:-7-3-5-5-3-7-5-7---|

E:-5---------5-3-5---|

A-C-D-D-C-A-G-A

It's a one two three, take my hand and come with me

Because you look so fine

That I really wanna make you mine

Riff 2

E:-----------------------------|

B:-----------------------------|

G:------------------------(s)--|

D:--7-7-7--7-7-7-7-7--5—7-(t)--|

A:--7-7-7--7-7-7-7-7--5—7-(o)--|

E:--5-5-5--5-5-5-5-5—-3-5-(p)--|

A G A

I say you look so fine

That I really wanna make you mine

Riff 2

E:-----------------------------|

B:-----------------------------|

G:------------------------(s)--|

D:--7-7-7--7-7-7-7-7--5—7-(t)--|

A:--7-7-7--7-7-7-7-7--5—7-(o)--|

E:--5-5-5--5-5-5-5-5—-3-5-(p)--|

A G A

Four five six, come on and get your kicks

Now you don't need the money

With a face like that, do ya?

Riff 2

E:-----------------------------|

B:-----------------------------|

G:-----------------------------|

D:--7-7-7--7-7-7-7-7--5—7------|

A:--7-7-7--7-7-7-7-7--5—7------|

E:--5-5-5--5-5-5-5-5—-3-5------|

A G A

 

 

Riff 1

E:-------------------|

B:-------------------|

G:---5-7-7-5---------|

D:-7-5-7-7-5-7-5-7---|

A:-7-3-5-5-3-7-5-7---|

E:-5---------5-3-5---|

A-C-D-D-C-A-G-A

 

 

Riff 3

E:--------------------------------------|

B:--------------------------------------|

G:--7-------7-------7--------3----------|

D:--7-------7-------7--------5--3-------|

A:--5-------5-------5--------5--5-------|

E:------------------------------5-------|

D D D C G

 

Big black boots

Long brown hair

She's so sweet with her

get back stare

 

 

Riff 4

E:-------------------------------------------------------------------------|

B:-------------------------------------------------------------------------|

G:--------------------5-5-5--5-5-5-5-5--7-7-7--7-7-7-7-7-------------------|

D:--7-7-7--7-7-7-7-7--5-5-5--5-5-5-5-5--7-7-7--7-7-7-7-7--7-7-7--7-7-7-7-7-|

A:--7-7-7--7-7-7-7-7--3-3-3--3-3-3-3-3--5-5-5--5-5-5-5-5--7-7-7--7-7-7-7-7-|

E:--5-5-5--5-5-5-5-5--------------------------------------5-5-5--5-5-5-5-5-|

A C D A

 

Well I could see, you home with me, But you were with another man, yeah!

I know we ain't got much to say, Before I let you get away, yeah!

 

 

Riff 5

E:--------------------|

B:--------------------|

G:--9-9-9--9-9-12-12--| (let last chord ring before lyrics)

D:--9-9-9--9-7-12—12--|

A:--7-7-7--7-7-10-10--|

E:--------------------|

E G

I said, are you gonna be my girl

 

Riff 6

E:-------------------------|

B:-------------------------|

G:--------------------5----| x4, then x8 with solo

D:--7-7-7--7-7-7-7-7--3—---|

A:--7-7-7--7-7-7-7-7--3—---|

E:--5-5-5--5-5-5-5-5—---—--|

A C

 

 

Solo

E----------------------------------------------------------------

B-------------------------15----------------------17-------------

G---14--16-b-17-b-16--14-----14--16-b-17-b-16--14----------------

D----------------------------------------------------------------

A----------------------------------------------------------------

E----------------------------------------------------------------

 

E----------------------------------------------------------------

B----------------------------------------------------------------

G---14--16-b-17-b-16--14-----14--16-b-17-b-16--14----------------

D-------------------------14-------------------------------------

A----------------------------------------------------------------

E----------------------------------------------------------------

 

 

Riff 4

E:-------------------------------------------------------------------------|

B:-------------------------------------------------------------------------|

G:--------------------5-5-5--5-5-5-5-5--7-7-7--7-7-7-7-7-------------------|

D:--7-7-7--7-7-7-7-7--5-5-5--5-5-5-5-5--7-7-7--7-7-7-7-7--7-7-7--7-7-7-7-7-|

A:--7-7-7--7-7-7-7-7--3-3-3--3-3-3-3-3--5-5-5--5-5-5-5-5--7-7-7--7-7-7-7-7-|

E:--5-5-5--5-5-5-5-5--------------------------------------5-5-5--5-5-5-5-5-|

A C D A

 

Well I could see, you home with me, But you were with another man, yeah!

I know we ain't got much to say, Before I let you get away, yeah!

 

 

Outro

E:-------------------------------------------------------------------------|

B:-------------------------------------------------------------------------|

G:--------------------5-5-5--5-5-5-5-5--7-7-7--7-7-7-7-7--9-9-9--9-9-12-12-|

D:--7-7-7--7-7-7-7-7--5-5-5--5-5-5-5-5--7-7-7--7-7-7-7-7--9-9-9--7-7-12-12-|

A:--7-7-7--7-7-7-7-7--3-3-3--3-3-3-3-3--5-5-5--5-5-5-5-5--7-7-7--7-7-10-10-|

E:--5-5-5--5-5-5-5-5-------------------------------------------------------|

A C D E G

 

Be my girl. Be my girl. Are you gonna be my girl.

 

(Let final chord ring to end song.)

 

 

Summary of Guitar Parts

 

Intro x1

Riff 1 x1

Riff 2 x3

Riff 1 x1

Riff 3 x4

Riff 4 x2

Riff 5 x1

Riff 6 x3

Riff 1 x1

Riff 2 x3

Riff 1 x1

Riff 3 x4

Riff 4 x2

Riff 5 x1

Riff 6 x4

Riff 6 x8 w/ solo

Solo x2

Riff 4 x2

Outro x1

 

Return to my Jet tabs page

The Tablature is Copyright its respective owners.

Sign Up For My Newsletter
Subscribe | Unsubscribe

Site Map | Disclaimer | Privacy Policy | Media Kit | Submissions/Corrections

Website © 2000-2014 mattsmusicpage.com. All rights reserved.

Legal & DMCA: Matt's Music Page has been providing lyrics and tabs in a legal way, paying royalties each year to a few organizations. Then, all lyrics and tabs were removed from the site. Now, there's a new owner to the site, which purchased it August 26, 2014, and he is in negotiation to obtain licensing from BMI at the moment. If you have a specific DMCA request -- please do not hesitate to contact me via the contact button on top. I will do my very best to keep this site fully legal.

Get our toolbar!