Your One-Stop Source For
Music Lyrics
Bass and Guitar Tabs
and More...
Music Lyrics Bass and Guitar Tabs

 

The Tabs Are Below

Learn To Read Tab
Chords Handbook
Corrections & Additions
Get Official Tab
INXS tabs @ 911Tabs

NEED YOU TONIGHT

by INXS, from the album KICK

bass tab by John Blanchette (pumpkinhead333@lycos.com)

tunning: EADG (standard)

-=-=-=-=-=-=-=-=-=-=-=-=-=-=-=-=-=-=-=-=-=-=-=-=-=-=-=-=-=-=-=-=-=-=-=-

 

INTRO: 2x

G|-----------------------------|

D|--13-13-13-13--12-12-12--10--|

A|--13-13-13-13--12-12-12--10--|

E|--11-11-11-11--10-10-10---8--|

with g1 after 3 beats

 

 

VERSE: 5x

G|---------------------------------|

D|--10---8-10------3-3-----3-3-----|

A|--10---8-10------3-3-----3-3-----|

E|---8---6--8------1-1--0--1-1--0--|

 

 

PRE-CHORUS: 4x

G|-----------------------------|

D|--13-13-13-13--12-12-12--10--|

A|--13-13-13-13--12-12-12--10--|

E|--11-11-11-11--10-10-10---8--|

with g1 after 3 beats

 

 

CHORUS: 4x

G|---------------------------------|

D|--10---8-10------3-3-----3-3-----|

A|--10---8-10------3-3-----3-3-----|

E|---8---6--8------1-1--0--1-1--0--|

 

 

VERSE 2:

(all with g1) 4x

G|---------------------------------|

D|--10---8-10------3-3-----3-3-----|

A|--10---8-10------3-3-----3-3-----|

E|---8---6--8------1-1--0--1-1--0--|

 

(pause for "I'm lonely")

2x

G|---------------------------------|

D|--10---8-10------3-3-----3-3-----|

A|--10---8-10------3-3-----3-3-----|

E|---8---6--8------1-1--0--1-1--0--|

 

 

PRE-CHORUS 2:

(all with g1)

2x

G|---------------------------------|

D|--10---8-10------3-3-----3-3-----|

A|--10---8-10------3-3-----3-3-----|

E|---8---6--8------1-1--0--1-1--0--|

 

G|-----------------------------|

D|--13-13-13-13--12-12-12--10--|

A|--13-13-13-13--12-12-12--10--|

E|--11-11-11-11--10-10-10---8--|

 

G|---------------------------------|

D|--10---8-10------3-3-----3-3-----|

A|--10---8-10------3-3-----3-3-----|

E|---8---6--8------1-1--0--1-1--0--|

 

G|-------------|

D|--10---8-10--|

A|--10---8-10--|

E|---8---6--8--|

 

-=-=-=-=-=-=-=-=-=-=-=-=-=-=-=-=-=-=-=-=-=-=-=-=-=-=-=-=-=-=-=-=-=-

Lyrics:

 

VERSE:

All you got is this moment

Twenty-first century's yesterday

You can care all you want

Everybody does, yeah that's okay

 

PRE-CHORUS:

So slide over here

And give me a moment

Your moves are so raw

I've got to let you know

I've got to let you know

You're one of my kind

 

CHORUS:

I need you tonight

'Cause I'm not sleeping

There's something about you girl

That makes me sweat

 

VERSE 2:

So how do you feel

I'm lonely

What do you think

Can't take it all

Whatcha gonna do

Gonna live my life

So how do you feel

I'm lonley

What do you think

Can't take it all

Whatcha gonna do

Gonna live my life

 

PRE-CHORUS

So slide over here

And give me a moment

Your moves are so raw

I've got to let you know

I've got to let you know

So slide over here

And give me a moment

I've got to let you know

I've got to let you know

You're one of my kind

 

Return to my to my INXS tabs page

The Tablature is Copyright its respective owners.

Sign Up For My Newsletter
Subscribe | Unsubscribe

Site Map | Disclaimer | Privacy Policy | Media Kit | Submissions/Corrections

Website © 2000-2014 mattsmusicpage.com. All rights reserved.

Legal & DMCA: Matt's Music Page has been providing lyrics and tabs in a legal way, paying royalties each year to a few organizations. Then, all lyrics and tabs were removed from the site. Now, there's a new owner to the site, which purchased it August 26, 2014, and he is in negotiation to obtain licensing from BMI at the moment. If you have a specific DMCA request -- please do not hesitate to contact me via the contact button on top. I will do my very best to keep this site fully legal.

Get our toolbar!