Your One-Stop Source For
Music Lyrics
Bass and Guitar Tabs
and More...
Music Lyrics Bass and Guitar Tabs

 

The Tabs Are Below

Learn To Read Tab
Chords Handbook
Corrections & Additions
Get Official Tab
JEW tabs @ 911Tabs

Author/Artist: INXS

Title: just keep walking

Album: the years 1979 - 1997

Transcribed by: nahke

Email: spyder_108@hotmail.com

 

 

 

guitar 1 (clean) is only needed in the intro

 

-|-4-xx-4-xx-4/-|-4-xx-4-xx-4/-|-4-xx-4-xx-4/-|-4-xx-4-xx-4/-|-4-xx-4-xx-4/-|-

-|-5-xx-5-xx-5/-|-5-xx-5-xx-5/-|-5-xx-5-xx-5/-|-5-xx-5-xx-5/-|-5-xx-5-xx-5/-|-

-|--------------|--------------|--------------|--------------|--------------|-

-|--------------|--------------|--------------|--------------|--------------|-

-|--------------|--------------|--------------|--------------|--------------|-

-|--------------|--------------|--------------|--------------|--------------|-

 

 

-|-4-xx-4-xx-4/-|-4-xx-4-xx-4/-|-4-xx-4-xx-4/-|-------------------------------

-|-5-xx-5-xx-5/-|-5-xx-5-xx-5/-|-5-xx-5-xx-5/-|-------------------------------

-|--------------|--------------|--------------|-------------------------------

-|--------------|--------------|--------------|-------------------------------

-|--------------|--------------|--------------|-------------------------------

-|--------------|--------------|--------------|-------------------------------

guitar 2 (slight distortion):

 

-|--------------|--------------|--------------|--------------|--------------|-

-|--------------|--------------|--------------|--------------|--------------|-

-|--------------|--------------|--------------|--------------|--------------|-

-|-6----4----2--|--------------|-6----4----2--|--------------|-6----4----2--|-

-|---7----5-----|--0-----------|---7----5-----|--4-----------|---7----5-----|-

-|--------------|--------------|--------------|--------------|--------------|-

let ring let ring

 

-|--------------|--------------|--------------|-------------------------------

-|--------------|--------------|--------------|-------------------------------

-|--------------|--------------|--------------|-------------------------------

-|--------------|-6----4----2--|--------------|-------------------------------

-|--0-----------|---7----5-----|--4-----------|-------------------------------

-|--------------|--------------|--------------|-------------------------------

let ring let ring

 

-|--------------|--------------|--------------|---------------|-------------|-

-|--------------|--------------|--------------|---------------|-------------|-

-|-9---8---9----|--------------|-9---8---9----|---------------|-9---8---9---|-

-|--------------|------11---9--|--------------|-----11---9----|-------------|-

-|--------------|-12-----------|--------------|-12------------|-------------|-

-|--------------|--------------|--------------|---------------|-------------|-

"green feilds . . ."

 

-|--------------|--------------|--------------|-------------------------------

-|--------------|--------------|--------------|-------------------------------

-|--------------|-9---8---9----|--------------|-------------------------------

-|-----11---9---|--------------|-----11---9---|-------------------------------

-|-12-----------|--------------|-12-----------|-------------------------------

-|--------------|--------------|--------------|-------------------------------

 

 

-|--------------|--------------|--------------|--------------|--------------|-

-|--------------|--------------|--------------|--------------|--------------|-

-|--------555-4-|--------555-4-|--------555-4-|--------555-4-|--------555-4-|-

-|-2-xx-2-555-4-|-2-xx-2-555-4-|-2-xx-2-555-4-|-2-xx-2-555-4-|-2-xx-2-555-4-|-

-|-2-xx-2-333-2-|-2-xx-2-333-2-|-2-xx-2-333-2-|-2-xx-2-333-2-|-2-xx-2-333-2-|-

-|-0-xx-0-------|-0-xx-0-------|-0-xx-0-------|-0-xx-0-------|-0-xx-0-------|-

"fast car driving . . ."

 

-|--------------|--------------|--------------|-------------------------------

-|--------------|--------------|--------------|-------------------------------

-|--------555-4-|--------555-4-|---------555-4|-------------------------------

-|-2-xx-2-555-4-|-2-xx-2-555-4-|-2-xx--2-555-4|-------------------------------

-|-2-xx-2-333-2-|-2-xx-2-333-2-|-2-xx--2-333-2|-------------------------------

-|-0-xx-0-------|-0-xx-0-------|-0-xx--0------|-------------------------------

 

 

-|--------------|---xxxxxxxx---|---xxxxxxxx---|--------------|--------------|-

-|--------------|---xxxxxxxx---|---xxxxxxxx---|--------------|--------------|-

-|--------------|---xxxxxxxx---|---xxxxxxxx---|--------------|--------------|-

-|--------------|---xxxxxxxx---|---xxxxxxxx---|--------------|--------------|-

-|-3---2---3--4-|---xxxxxxxx---|---xxxxxxxx---|--------------|--------------|-

-|--------------|---xxxxxxxx---|---xxxxxxxx---|--7--6---4--2-|--7--6---4--2-|-

"clever words . . ."

 

-|--------------|--------------|--------------|--------------|--------------|-

-|--------------|--------------|--------------|--------------|--------------|-

-|-9---8---9----|--------------|-9---8---9----|--------------|-9---8---9----|-

-|--------------|-----11---9---|--------------|-----11---9---|--------------|-

-|--------------|-12-----------|--------------|-12-----------|--------------|-

-|--------------|--------------|--------------|--------------|--------------|-

"city penthouse . . ."

 

-|--------------|--------------|--------------|-------------------------------

-|--------------|--------------|--------------|-------------------------------

-|--------------|-9---8---9----|--------------|-------------------------------

-|-----11---9---|--------------|-----11---9---|-------------------------------

-|-12-----------|--------------|-12-----------|-------------------------------

-|--------------|--------------|--------------|-------------------------------

 

 

-|--------------|--------------|--------------|--------------|--------------|-

-|--------------|--------------|--------------|--------------|--------------|-

-|--------555-4-|---------555-2|---------555-4|---------555-4|---------555-4|-

-|-2-xx-2-555-4-|-2-xx--2-555-2|-2-xx--2-555-4|-2-xx--2-555-4|-2-xx--2-555-4|-

-|-2-xx-2-333-2-|-2-xx--2-333-0|-2-xx--2-333-2|-2-xx--2-333-2|-2-xx--2-333-2|-

-|-0-xx-0-------|-0-xx--0------|-0-xx--0------|-0-xx--0------|-0-xx--0------|-

"fast car driving . . ."

 

-|--------------|--------------|--------------|-------------------------------

-|--------------|--------------|--------------|-------------------------------

-|--------555-4-|--------555-4-|--------555-4-|-------------------------------

-|-2-xx-2-555-4-|-2-xx-2-555-4-|-2-xx-2-555-4-|-------------------------------

-|-2-xx-2-333-2-|-2-xx-2-333-2-|-2-xx-2-333-2-|-------------------------------

-|-0-xx-0-------|-0-xx-0-------|-0-xx-0-------|-------------------------------

 

 

-|--------------|--------------|--------------|---------------|-------------|-

-|--------------|---10-10b12---|------8-------|--15-15b17-----|---10-10b12--|-

-|--------------|--------------|--7-7b9-------|---------------|-------------|-

-|--------------|--------------|--------------|---------------|-------------|-

-|--3--2---3--0-|--------------|--------------|---------------|-------------|-

-|--------------|--------------|--------------|---------------|-------------|-

hold hold hold hold

 

-|--------------|--------------|----------------------------------------------

-|--------------|--------------|----------------------------------------------

-|--------------|--------------|----------------------------------------------

-|--------------|--------------|----------------------------------------------

-|--------------|--------------|----------------------------------------------

-|-7--6---2--4--|-7--6---2--4--|----------------------------------------------

 

 

-|--------------|--------------|---------------|---------------|------------|-

-|--------------|--------------|---------------|---------------|------------|-

-|-9---8---9----|--------------|-9---8---9-----|---------------|-9---8---9--|-

-|--------------|-----11---9---|---------------|-----11---9----|------------|-

-|--------------|-12-----------|---------------|-12------------|------------|-

-|--------------|--------------|---------------|---------------|------------|-

"green fields . . ."

 

-|--------------|--------------|---------------|------------------------------

-|--------------|--------------|---------------|------------------------------

-|--------------|-9---8---9----|---------------|------------------------------

-|-----11---9---|--------------|-----11---9----|------------------------------

-|-12-----------|--------------|-12------------|------------------------------

-|--------------|--------------|---------------|------------------------------

 

 

-|--------------|--------------|---------------|--------------|-------------|-

-|--------------|--------------|---------------|--------------|-------------|-

-|--------555-4-|--------555-4-|--------555-4--|--------555-4-|--------555-4|-

-|-2-xx-2-555-4-|-2-xx-2-555-4-|-2-xx-2-555-4--|-2-xx-2-555-4-|-2-xx-2-555-4|-

-|-2-xx-2-333-2-|-2-xx-2-333-2-|-2-xx-2-333-2--|-2-xx-2-333-2-|-2-xx-2-333-2|-

-|-0-xx-0-------|-0-xx-0-------|-0-xx-0--------|-0-xx-0-------|-0-xx-0------|-

"fast car driving . . ."

 

-|--------------|--------------|---------------|------------------------------

-|--------------|--------------|---------------|------------------------------

-|--------555-4-|--------555-4-|--------555-4--|------------------------------

-|-2-xx-2-555-4-|-2-xx-2-555-4-|-2-xx-2-555-4--|------------------------------

-|-2-xx-2-333-2-|-2-xx-2-333-2-|-2-xx-2-333-2--|------------------------------

-|-0-xx-0-------|-0-xx-0-------|-0-xx-0--------|------------------------------

 

 

-|--------------|--------------|---------------|-4-|--------------------------

-|--------------|--------------|---------------|-5-|--------------------------

-|--------------|--------------|---------------|---|--------------------------

-|--------------|--------------|---------------|---|--------------------------

-|-3--2--3--0---|-3--2--3--0---|-3---2--3--0---|---|--------------------------

-|--------------|--------------|---------------|---|--------------------------

"clever words . . ."

 

 

Return to my Jimmy Eat World tabs page

The Tablature is Copyright its respective owners.

Sign Up For My Newsletter
Subscribe | Unsubscribe

Site Map | Disclaimer | Privacy Policy | Media Kit | Submissions/Corrections

Website © 2000-2014 mattsmusicpage.com. All rights reserved.

Legal & DMCA: Matt's Music Page has been providing lyrics and tabs in a legal way, paying royalties each year to a few organizations. Then, all lyrics and tabs were removed from the site. Now, there's a new owner to the site, which purchased it August 26, 2014, and he is in negotiation to obtain licensing from BMI at the moment. If you have a specific DMCA request -- please do not hesitate to contact me via the contact button on top. I will do my very best to keep this site fully legal.

Get our toolbar!