Your One-Stop Source For
Music Lyrics
Bass and Guitar Tabs
and More...
Music Lyrics Bass and Guitar Tabs

 

The Tabs Are Below

Learn To Read Tab
Chords Handbook
Corrections & Additions
Get Official Tab
Incubus tabs @ 911Tabs

Song: summer romance

Artist: incubus

tabbed by bret (gibsonstudio6@aol.com)

 

intro:

E:-------------------- --------

B:-------------------- --------

G:-------------------- --------

D:-------------------- then --------

A:2-5-2-0-0-2--------- --------

E:------------2-2-5-5- 3-3-5-5-

 

post intro:

E:7-10p7------------------------------

B:-------9----------------------------

G:---------7h9------7---9----7/9--7-7-

D:--------------7/6---6---6-----------

A:------------------------------------

E:------------------------------------

 

verse:

E:7---10/12/14/-12/9/14/7-

B:7-----------------------

G:7---7/9/11/----9/6/11/4-

D:7-----------------------

A:9-----------------------

E:7-----------------------

the last chord is strummed also

 

chorus: part a

E:--7-------5------------------7-------3-

B:--8-------7--------8---------7-------3-

G:--7-------6--------6---------7-------4-

D:--9-------7--------8---------7-------4-

A:--7-------5--------7---------9-------5-

E:-------------------6---------7-------3-

 

part b:

E:--3-------2-

B:--3-------2-

G:--4-------3-

D:--4-------4-

A:--5-------4-

E:--3-------2-

 

 

 

 

 

======================================================================

 

song:Summer Romance

artist:incubus

tabbed by Bret (incuscience10@aol.com)

intro:

A:-2-5--2--0-0-2-------|---2-5--2--0-0-2-------

E:---------------2-2-5-|-----------------3-3-5-

intro part b:this is played once throught the song.

E-7-10-7-----------------------------

B:--------9--------------------------

G:----------9-7----------7---7/9-7-7-

D:--------------9-7--6-9---9---------

 

verse:

E:--7-----10-/-12-/-14-\-12-\-10-/-12-\-10-\-7-

B:--7------------------------------------------

G:--7-----7--/ 9--/ 11-\ 9--\ 7- / 11-\ 7--\ 4-

D:--7------------------------------------------

A:--9------------------------------------------

E:--7------------------------------------------

 

chorus: part a

E:--7-------5------------------7-------3-

B:--8-------7--------8---------7-------3-

G:--7-------6--------6---------7-------4-

D:--9-------7--------8---------7-------4-

A:--7-------5--------7---------9-------5-

E:-------------------6---------7-------3-

 

part b:

E:--3-------2-

B:--3-------2-

G:--4-------3-

D:--4-------4-

A:--5-------4-

E:--3-------2-

 

 

Return to my Incubus tabs page

The Tablature is Copyright its respective owners.

Sign Up For My Newsletter
Subscribe | Unsubscribe

Site Map | Disclaimer | Privacy Policy | Media Kit | Submissions/Corrections

Website © 2000-2014 mattsmusicpage.com. All rights reserved.

Legal & DMCA: Matt's Music Page has been providing lyrics and tabs in a legal way, paying royalties each year to a few organizations. Then, all lyrics and tabs were removed from the site. Now, there's a new owner to the site, which purchased it August 26, 2014, and he is in negotiation to obtain licensing from BMI at the moment. If you have a specific DMCA request -- please do not hesitate to contact me via the contact button on top. I will do my very best to keep this site fully legal.

Get our toolbar!

 

VINTAGE SORRENTO MUSIC JEWELRY BOX
$45.0
VINTAGE SORRENTO MUSIC JEWELRY BOX picture


VINTAGE LACQUERED MUSIC BOX JAPAN
$25.99
VINTAGE LACQUERED MUSIC BOX JAPAN picture


Vintage Kehlsteinhaus Bavaria Germany Colorscope Cow Bell View Master Music Box
$8.99
Vintage Kehlsteinhaus Bavaria Germany Colorscope Cow Bell View Master Music Box picture


VINTAGE SCHMIDT Signed Collectible Musical Turning Clown
$9.99
VINTAGE  SCHMIDT Signed Collectible Musical Turning Clown picture


Vintage - Linen - Postcard - Stage - Radio City Music Hall - New York City
$3.75
Vintage - Linen - Postcard - Stage - Radio City Music Hall - New York City   picture