Your One-Stop Source For
Music Lyrics
Bass and Guitar Tabs
and More...
Music Lyrics Bass and Guitar Tabs

 

The Incubus Guitar Tabs Are Below

Learn To Read Tab
Chords Handbook
Corrections & Additions
Get Official Tab
Incubus tabs @ 911Tabs

Incubus

Rogues

Standard Tuning

Tabbed by: Earwood

 

Updated – 3.19.07 (Solo Added)

 

Intro

||----------------------------------|-------------------------------------|

||o---------------------------------|-------------------------------------|

||----------------------------------|-------------------------------------|

||------0------0------0-----0-----0-|------0------0-------0------0------0-|

||o---0------0-----0------0-----0---|----0------0------0-------0------0---|

||--2-----/8-----8------8-----8-----|-12-----12----/10------10-----10-----|

 

|----------------------------------|-------------------------------------||

|----------------------------------|------------------------------------o||

|----------------------------------|-------------------------------------||

|-------0------0-----0-----0-----0-|------0------0------0------0------0--||

|-----0------0-----0-----0-----0---|----0------0------0------0------0---o||

|-0-2-----/8-----8-----8-----8-----|-12-----12-----10-----10-----10------||

 

Pre-Verse

||-------------------|---------------------|

||o------------------|---------------------|

||-------------------|---------------------|

||-------------------|-----------------7---|

||o-----------5------|-----------5-x-x-----|

||--x-7-7-5h7----5-5-|-7-7-5-5-7---------5-|

 

|----------------|-----------------------|

|----------------|-----------------------|

|----------------|-----------------------|

|----------------|-----------------7-----|

|---------5------|-----------5-x-x-------|

|-7-7-5h7----5-5-|-7-7-5-5-7---------5---|

 

|----------------|-----------------------|

|----------------|-----------------------|

|----------------|-----------------------|

|----------------|-----------------7-----|

|---------5------|-----------5-x-x-------|

|-7-7-5h7----5-5-|-7-7-5-5-7---------5---|

 

|----------------------------------------------------||

|---------------------------------------------------o||

|----------------------------------------------------||

|----------------------------------------------------||

|---------5—5-5^6-6-6-6-6-6-6-6-6-6-6-6-6-6-6^r5-5--o||

|-7-7-5h7--------------------------------------------||

{{((((((Bend to Note)))))))}}

Verse

||------------------|---------------------7-|

||o-9--9-x-x-9-9--8-|-(8)-8-8-x-x-8-8-x-x-7-|

||--7--7-x-x-7-7--7-|-(7)-7-7-x-x-7-7-x-x-7-|

||--9--9-x-x-9-9--9-|-(9)-9-9-x-x-9-9-x-x-9-|

||o-----------------|---------------------9-|

||------------------|---------------------7-|

 

|-(7)-7-7-x-x-7-7-7-7-|-(7)-7-7-x-x-7-7-7-----|

|-(7)-7-7-x-x-7-7-7-7-|-(7)-7-7-x-x-7-7-7--9--|

|-(7)-7-7-x-x-7-7-7-7-|-(7)-7-7-x-x-7-7-7--7--|

|-(9)-9-9-x-x-9-9-9-9-|-(9)-9-9-x-x-9-9-9--9--|

|-(9)-9-9-x-x-9-9-9-9-|-(9)-9-9-x-x-9-9-9-----|

|-(7)-7-7-x-x-7-7-7-7-|-(7)-7-7-x-x-7-7-7-----|

 

|--------------------|-----------------------7-|

|-(9)-9-9-x-x-9-9--8-|-(8)-8-8-x-x-8-8-8-x-x-7-|

|-(7)-7-7-x-x-7-7--7-|-(7)-7-7-x-x-7-7-7-x-x-7-|

|-(9)-9-9-x-x-9-9--9-|-(9)-9-9-x-x-9-9-9-x-x-9-|

|--------------------|-----------------------9-|

|--------------------|-----------------------7-|

 

|-(7)-7-7-x-x-7-7-7-7-|-(7)-7-7-x-x-7-7-7-----|

|-(7)-7-7-x-x-7-7-7-7-|-(7)-7-7-x-x-7-7-7--9--|

|-(7)-7-7-x-x-7-7-7-7-|-(7)-7-7-x-x-7-7-7--7--|

|-(9)-9-9-x-x-9-9-9-9-|-(9)-9-9-x-x-9-9-9--9--|

|-(9)-9-9-x-x-9-9-9-9-|-(9)-9-9-x-x-9-9-9-----|

|-(7)-7-7-x-x-7-7-7-7-|-(7)-7-7-x-x-7-7-7-----|

 

|--------------------|-----------------------7-|

|-(9)-9-9-x-x-9-9--8-|-(8)-8-8-x-x-8-8-8-x-x-7-|

|-(7)-7-7-x-x-7-7--7-|-(7)-7-7-x-x-7-7-7-x-x-7-|

|-(9)-9-9-x-x-9-x--9-|-(9)-9-9-x-x-9-9-9-x-x-9-|

|--------------------|-----------------------9-|

|--------------------|-----------------------7-|

 

|-(7)-7-7-x-x-7-7-7-----|---------------------------2-|

|-(7)-7-7-x-x-7-7-7-----|---------------------------2-|

|-(7)-7-7-x-x-7-7-7--10-|-(10)-10-10-x-x-10-10-10-x-3-|

|-(9)-9-9-x-x-9-9-9---9-|--(9)--9--9-x-x--9--9--9-x-4-|

|-(9)-9-9-x-x-9-9-9--10-|-(10)-10-10-x-x-10-10-10-x-4-|

|-(7)-7-7-x-x-7-7-7-----|---------------------------2-|

 

|-(2)-2-2-x-x-2-2-2-x-2-|-(2)-2-2-x-x-2-2-2-x-6-|

|-(2)-2-2-x-x-2-2-2-x-2-|-(2)-2-2-x-x-2-2-2-x-7-|

|-(3)-3-3-x-x-3-3-3-x-3-|-(3)-3-3-x-x-3-3-3-x-6-|

|-(4)-4-4-x-x-4-4-4-x-4-|-(4)-4-4-x-x-4-4-4-x-8-|

|-(4)-4-4-x-x-4-4-4-x-4-|-(4)-4-4-x-x-4-4-4-x-6-|

|-(2)-2-2-x-x-2-2-2-x-0-|-(0)-0-0-x-x-0-0-0-x---|

 

|-(6)-6-6-6-6-6-6-6-----|--------------------||

|-(7)-7-7-7-7-7-7-7---7-|-(7)-7-7-7-7-7-7----||

|-(6)-6-6-6-6-6-6-6-x-7-|-(7)-7-7-7-7-7-7----||

|-(8)-8-8-8-8-8-8-8-x-7-|-(7)-7-7-7-7-7-7--9-||

|-(6)-6-6-6-6-6-6-6-x-5-|-(5)-5-5-5-5-5-5-10-||

|-----------------------|--------------------||

 

Chorus

|----------------------------|-----------------------|

|----------------------------|-----------------------|

|----------------------------|--------------------11-|

|--(9)--9--9--9--9--9-11-x-9-|-(9)-9-9-9-9-9-11-x-12-|

|-(10)-10-10-10-10-10-10-x-9-|-(9)-9-9-9-9-9--9-x-12-|

|----------------------------|------------------x-10-|

 

|-------------------------|--------------------------|

|-------------------------|--------------------------|

|-(11)-11---11-11-11-x-11-|-(11)-11---11-11-11-x-----|

|-(12)-12-x--x--x--x-x-12-|-(12)-12-x--x--x--x-x--9--|

|-(12)-12-x--9--9--9-x-12-|-(12)-12-x--9--9--9-x-10--|

|-(10)-10-x------------10-|-(10)-10-x----------------|

 

|----------------------------|-----------------------|

|----------------------------|-----------------------|

|----------------------------|--------------------11-|

|--(9)--9--9--9--9--9-11-x-9-|-(9)-9-9-9-9-9-11-x-12-|

|-(10)-10-10-10-10-10-10-x-9-|-(9)-9-9-9-9-9--9-x-12-|

|----------------------------|------------------x-10-|

 

|-------------------------|--------------------------|

|-------------------------|--------------------------|

|-(11)-11---11-11-11-x-11-|-(11)-11---11-11-11-x-----|

|-(12)-12-x--x--x--x-x-12-|-(12)-12-x--x--x--x-x--9--|

|-(12)-12-x--9--9--9-x-12-|-(12)-12-x--9--9--9-x-10--|

|-(10)-10-x------------10-|-(10)-10-x----------------|

 

|----------------------------|-----------------------|

|----------------------------|-----------------------|

|----------------------------|--------------------11-|

|--(9)--9--9--9--9--9-11-x-9-|-(9)-9-9-9-9-9-11-x-12-|

|-(10)-10-10-10-10-10-10-x-9-|-(9)-9-9-9-9-9--9-x-12-|

|----------------------------|------------------x-10-|

 

|-------------------------|--------------------------|

|-------------------------|--------------------------|

|-(11)-11---11-11-11-x-11-|-(11)-11---11-11-11-x-----|

|-(12)-12-x--x--x--x-x-12-|-(12)-12-x--x--x--x-x--9--|

|-(12)-12-x--9--9--9-x-12-|-(12)-12-x--9--9--9-x-10--|

|-(10)-10-x------------10-|-(10)-10-x----------------|

 

|----------------------------|-----------------------|

|----------------------------|-----------------------|

|----------------------------|--------------------11-|

|--(9)--9--9--9--9--9-11-x-9-|-(9)-9-9-9-9-9-11-x-12-|

|-(10)-10-10-10-10-10-10-x-9-|-(9)-9-9-9-9-9--9-x-12-|

|----------------------------|------------------x-10-|

 

|-------------------------||-------------------------|

|-------------------------||-------------------------|

|-(11)-11---11-11-11-x-11-||-(11)-11---11-11-11-x-11-|

|-(12)-12-x--x--x--x-x-12-||-(12)-12-x--x--x--x-x-12-|

|-(12)-12-x--9--9--9-x-12-||-(12)-12-x--9--9--9-x-12-|

|-(10)-10-x------------10-||-(10)-10-x------------10-|

 

|-------------------------|--------------------------||

|-------------------------|--------------------------||

|-(11)-11---11-11-11-x-11-|-(11)-11---11-11-11-11-11-||

|-(12)-12-x--x--x--x-x-12-|-(12)-12-x--x--x--x--x--x-||

|-(12)-12-x--9--9--9-x-12-|-(12)-12-x--9--9--9--9--9-||

|-(10)-10-x------------10-|-(10)-10-x----------------||

 

 

{Pre-Verse}

{Verse}

{Chorus}

 

 

Solo

|-----------------------------------9-9b10br--7--9-----|

|-----7--9--9b10br--7--9--7-------x-----------------0--|

|------------------------------7--x--------------------|

|--9------------------------9--------------------------|

|------------------------------------------------------|

|------------------------------------------------------|

 

|--------------------------------------10-10--10br-------|

|-------9--9b10br--------9--------9--x----------------0--|

|------------------7-----------7-----x-------------------|

|--8------------------8-----8----------------------------|

|--------------------------------------------------------|

|--------------------------------------------------------|

 

|--15b----15----15-15--15-----15-15--|

|--15b----15----15-15--15--15-15-15--|

|-------------0---------------16-16--|

|------------------------------------|

|------------------------------------|

|------------------------------------|

 

|-15--15b-15-15-15-15-15-15-15-15-15---|

|-15--15b-15-15-15-15-15-15-15-15-15-0-|

|-16---------------------------------0-|

|--------------------------------------|

|--------------------------------------|

|--------------------------------------|

 

|---------------------------9---------9------9------x-|

|-------------8------8---------8----------------8---x-|

|----7--9/10-----10-----10--------10-----10--------10-|

|-8---------------------------------------------------|

|-----------------------------------------------------|

|-----------------------------------------------------|

 

|-----------------------|----------------------|

|--15---------------15--|-----------15---------|

|-----------------------|----------------------|

|----------12-----------|---12------------12---|

|-----------------------|----------------------|

|-----------------------|----------------------|

 

|--16---------------16--|-----------16---------|

|-----------------------|----------------------|

|-----------------------|----------------------|

|----------12-----------|---12------------12---|

|-----------------------|----------------------|

|-----------------------|----------------------|

 

|-14--14--14--14--14--14--14--14--|--13--13--12--12--11--11--0-|

|---------------------------------|--------------------------0-|

|---------------------------------|----------------------------|

|---------------------------------|----------------------------|

|---------------------------------|----------------------------|

|---------------------------------|----------------------------|

 

|--------------15--15--16--16--15--|---------------------------|

|--15--15--15--15--15--15--15--15--|---------------------------|

|--13--13--13--13--13--13--13--13--|---------------------------|

|----------12----------------------|--------0---------0--------|

|----------------------------------|--------0---------0--------|

|----------------------------------|--3b^---0--3b^----0--3b^---|

 

|--2-2-2-2-2-2-2-2-2-2-2-2-2-2-2-2-|

|--3-3-3-3-3-3-3-3-3-3-3-3-3-3-3-3-|

|--4-4-4-4-4-4-4-4-4-4-4-4-4-4-4-4-|

|----------------------------------|

|----------------------------------|

|----------------------------------|

 

Chorus

|----------------------------|-----------------------|

|----------------------------|-----------------------|

|----------------------------|--------------------11-|

|--(9)--9--9--9--9--9-11-x-9-|-(9)-9-9-9-9-9-11-x-12-|

|-(10)-10-10-10-10-10-10-x-9-|-(9)-9-9-9-9-9--9-x-12-|

|----------------------------|------------------x-10-|

 

|-------------------------|--------------------------|

|-------------------------|--------------------------|

|-(11)-11---11-11-11-x-11-|-(11)-11---11-11-11-x-----|

|-(12)-12-x--x--x--x-x-12-|-(12)-12-x--x--x--x-x--9--|

|-(12)-12-x--9--9--9-x-12-|-(12)-12-x--9--9--9-x-10--|

|-(10)-10-x------------10-|-(10)-10-x----------------|

 

|----------------------------|-----------------------|

|----------------------------|-----------------------|

|----------------------------|--------------------11-|

|--(9)--9--9--9--9--9-11-x-9-|-(9)-9-9-9-9-9-11-x-12-|

|-(10)-10-10-10-10-10-10-x-9-|-(9)-9-9-9-9-9--9-x-12-|

|----------------------------|------------------x-10-|

 

|-------------------------|--------------------------|

|-------------------------|--------------------------|

|-(11)-11---11-11-11-x-11-|-(11)-11---11-11-11-x-----|

|-(12)-12-x--x--x--x-x-12-|-(12)-12-x--x--x--x-x--9--|

|-(12)-12-x--9--9--9-x-12-|-(12)-12-x--9--9--9-x-10--|

|-(10)-10-x------------10-|-(10)-10-x----------------|

 

|----------------------------|-----------------------|

|----------------------------|-----------------------|

|----------------------------|--------------------11-|

|--(9)--9--9--9--9--9-11-x-9-|-(9)-9-9-9-9-9-11-x-12-|

|-(10)-10-10-10-10-10-10-x-9-|-(9)-9-9-9-9-9--9-x-12-|

|----------------------------|------------------x-10-|

 

|-------------------------|--------------------------|

|-------------------------|--------------------------|

|-(11)-11---11-11-11-x-11-|-(11)-11---11-11-11-x-----|

|-(12)-12-x--x--x--x-x-12-|-(12)-12-x--x--x--x-x--9--|

|-(12)-12-x--9--9--9-x-12-|-(12)-12-x--9--9--9-x-10--|

|-(10)-10-x------------10-|-(10)-10-x----------------|

 

|----------------------------|-----------------------|

|----------------------------|-----------------------|

|----------------------------|--------------------11-|

|--(9)--9--9--9--9--9-11-x-9-|-(9)-9-9-9-9-9-11-x-12-|

|-(10)-10-10-10-10-10-10-x-9-|-(9)-9-9-9-9-9--9-x-12-|

|----------------------------|------------------x-10-|

 

|-------------------------||-------------------------|

|-------------------------||-------------------------|

|-(11)-11---11-11-11-x-11-||-(11)-11---11-11-11-x-11-|

|-(12)-12-x--x--x--x-x-12-||-(12)-12-x--x--x--x-x-12-|

|-(12)-12-x--9--9--9-x-12-||-(12)-12-x--9--9--9-x-12-|

|-(10)-10-x------------10-||-(10)-10-x------------10-|

 

|-------------------------|--------------------------||

|-------------------------|--------------------------||

|-(11)-11---11-11-11-x-11-|-(11)-11---11-11-11-11-11-||

|-(12)-12-x--x--x--x-x-12-|-(12)-12-x--x--x--x--x--x-||

|-(12)-12-x--9--9--9-x-12-|-(12)-12-x--9--9--9--9--9-||

|-(10)-10-x------------10-|-(10)-10-x----------------||

 

Return to my Incubus Guitar Tabs page

The Tablature is Copyright its respective owners.

Sign Up For My Newsletter
Subscribe | Unsubscribe

Site Map | Disclaimer | Privacy Policy | Media Kit | Submissions/Corrections

Website © 2000-2014 mattsmusicpage.com. All rights reserved.

Legal & DMCA: Matt's Music Page has been providing lyrics and tabs in a legal way, paying royalties each year to a few organizations. Then, all lyrics and tabs were removed from the site. Now, there's a new owner to the site, which purchased it August 26, 2014, and he is in negotiation to obtain licensing from BMI at the moment. If you have a specific DMCA request -- please do not hesitate to contact me via the contact button on top. I will do my very best to keep this site fully legal.

Get our toolbar!