Your One-Stop Source For
Music Lyrics
Bass and Guitar Tabs
and More...
Music Lyrics Bass and Guitar Tabs

 

The Tabs Are Below

Learn To Read Tab
Chords Handbook
Corrections & Additions
Get Official Tab
Incubus tabs @ 911Tabs

This song may take a lot of practice to get the strums and the verse but just practice it.

Just listen to the song and follow the tab. If you have any suggestions or comments, e-mail

me at J13Sk8r@aol.com.

 

Intro 0:00

E------------------------------------

B---------0-----------------0--------

G-----4-----4-----------4-----4------

D---2---2-----2-------2---2-----2----

A-4---------------4-0---------------4

E------------------------------------

 

E----------------------------0-

B---------0------------------0-

G-----4-----4-----------4----4-

D---2---2-----2-------2---2--2- Repeat

A-4---------------4-0--------0-

E------------------------------

 

E---------------------------------------------------

B---------------------------------------------------

G-6--6-6-6--6-6---4-4---2----6--6-6-6--6-6---2-2----

D-6--6-6-6--6-6---4-4---2----6--6-6-6--6-6---2-2--2-

A-4--4-4-4--4-4---2-2---0----4--4-4-4--4-4---0-0--2-

E-------------------------------------------------0-

 

E----------------------------------------------------------

B----------------------------------------------------------

G-6--6-6-6--6-6---4-4---2----6--6-6-6--6-6---9-9---4-4---2-

D-6--6-6-6--6-6---4-4---2----6--6-6-6--6-6---9-9---4-4---2-

A-4--4-4-4--4-4---2-2---0----4--4-4-4--4-4---7-7---2-2---0-

E----------------------------------------------------------

 

Verse 0:27

E---2--------2-2-2----------------------------0-0-0--

B---0--------0-0-0------2-2-2------2-2-2------0-0-0--

G-1-1--------1-1-1------0-0-0------0-0-0------8-8-8--

D---------2--2-2-2---1--1-1-1---1--1-1-1------6-6-6--

A------0-----------------------------------4--4-4-4--

E----------------------------------------------------

 

E---------------0-------0---------------0---------

B----4-4-4------0-------0---------------0---------

G----4-4-4------7-------7-------------8---8-------

D----4-4-4------7-------7-----------6-------6-----

A-2--2-2-2---5--5--5--5-5-5-5-5---4-----------4---

E-----------------------------------------------4-

 

E----------------------------------------------

B-4-4-4------4-4-4------4-4-4------------8-8-8-

G-4-4-4------4-4-4------4-4-4------------6-6-6-

D-4-4-4---2--2-2-2---2--2-2-2------------7-7-7-

A-2-2-2-------------------------7---6----6-6-6-

E---------------------------------6------------

 

E-------0---0---0--0-0-0-0-0--0-0-0--0---------

B-------0---0---0--0-0-0-0-0--0-0-0--0---------

G-----4---4-----2--2-2-2-2-2--2-2-2--2---------

D---4-----------2--2-2-2-2-2--2-2-2--2---------

A-2-------------0--0-0-0-0-0--0-0-0--0---------

E----------------------------------------------

 

Chorus 0:55

E----------------------------------0-----0-------

B----------------------------------0-----0-------

G-6--6-6-6--6---4--4-4-4--4-4---2--2-2-2-2-2-----

D-6--6-6-6--6---4--4-4-4--4-4---2--2-2-2-2-2-----

A-4--4-4-4--4---2--2-2-2--2-2---0--0-0-0-0-0-----

E------------------------------------------------

 

E---------------------------

B---------------------------

G---------------------------

D---4--x--2--x--4--x--2-----

A---4--x--2--x--4--x--2-----

E---2--x--0--x--2--x--0-----

 

E----------------------------------0-----0-------

B----------------------------------0-----0-------

G-6--6-6-6--6---4--4-4-4--4-4---2--2-2-2-2-2-----

D-6--6-6-6--6---4--4-4-4--4-4---2--2-2-2-2-2-----

A-4--4-4-4--4---2--2-2-2--2-2---0--0-0-0-0-0-----

E------------------------------------------------

 

E---------------------------

B---------------------------

G---------------------------

D---4--x--2--x--4--x--2-----

A---4--x--2--x--4--x--2-----

E---2--x--0--x--2--x--0-----

 

E-----------------0----------------------------0--------

B-----------------0----------------------------0--------

G-6--6-6-6--6---2-2---4-4-4-4--4-4--4-4--4-4-4-4-4-4-4--

D-6--6-6-6--6---2-2---4-4-4-4--4-4--4-4--4-4-4-4-4-4-4--

A-4--4-4-4--4---0-0---2-2-2-2--2-2--2-2--2-2-2-2-2-2-2--

E-------------------------------------------------------

 

E-----------------0---------------------

B-----------------0---------------------

G-6--6-6-6--6---2-2---4-4-4-4--4-4--4-4-

D-6--6-6-6--6---2-2---4-4-4-4--4-4--4-4-

A-4--4-4-4--4---0-0---2-2-2-2--2-2--2-2-

E---------------------------------------

 

E---------------------------

B---------------------------

G---------------------------

D---4--x--2--x--4--x--2-----

A---4--x--2--x--4--x--2-----

E---2--x--0--x--2--x--0-----

 

Bridge 1:23

E----------------------------------------------

B----------------------------------------------

G----------------------------------------------

D-6-6---x--x--x---2-2-2-2---x--x--x---6-6-6-6--

A-6-6---x--x--x---2-2-2-2---x--x--x---6-6-6-6--

E-4-4---x--x--x---0-0-0-0---x--x--x---4-4-4-4--

 

E-------------------

B-------------------

G-------------------

D-x--x--x---2-2-2-2-

A-x--x--x---2-2-2-2-

E-x--x--x---0-0-0-0-

 

Verse 1:30

E---2--------2-2-2----------------------------0-0-0--

B---0--------0-0-0------2-2-2------2-2-2------0-0-0--

G-1-1--------1-1-1------0-0-0------0-0-0------8-8-8--

D---------2--2-2-2---1--1-1-1---1--1-1-1------6-6-6--

A------0-----------------------------------4--4-4-4--

E----------------------------------------------------

 

E---------------0-------0---------------0---------

B----4-4-4------0-------0---------------0---------

G----4-4-4------7-------7-------------8---8-------

D----4-4-4------7-------7-----------6-------6-----

A-2--2-2-2---5--5--5--5-5-5-5-5---4-----------4---

E-----------------------------------------------4-

 

E----------------------------------------------

B-4-4-4------4-4-4------4-4-4------------8-8-8-

G-4-4-4------4-4-4------4-4-4------------6-6-6-

D-4-4-4---2--2-2-2---2--2-2-2------------7-7-7-

A-2-2-2-------------------------7---6----6-6-6-

E---------------------------------6------------

 

E-------0---0---0--0-0-0-0-0--0-0-0--0---------

B-------0---0---0--0-0-0-0-0--0-0-0--0---------

G-----4---4-----2--2-2-2-2-2--2-2-2--2---------

D---4-----------2--2-2-2-2-2--2-2-2--2---------

A-2-------------0--0-0-0-0-0--0-0-0--0---------

E----------------------------------------------

 

Chorus 1:58

E----------------------------------0-----0-------

B----------------------------------0-----0-------

G-6--6-6-6--6---4--4-4-4--4-4---2--2-2-2-2-2-----

D-6--6-6-6--6---4--4-4-4--4-4---2--2-2-2-2-2-----

A-4--4-4-4--4---2--2-2-2--2-2---0--0-0-0-0-0-----

E------------------------------------------------

 

E---------------------------

B---------------------------

G---------------------------

D---4--x--2--x--4--x--2-----

A---4--x--2--x--4--x--2-----

E---2--x--0--x--2--x--0-----

 

E----------------------------------0-----0-------

B----------------------------------0-----0-------

G-6--6-6-6--6---4--4-4-4--4-4---2--2-2-2-2-2-----

D-6--6-6-6--6---4--4-4-4--4-4---2--2-2-2-2-2-----

A-4--4-4-4--4---2--2-2-2--2-2---0--0-0-0-0-0-----

E------------------------------------------------

 

E---------------------------

B---------------------------

G---------------------------

D---4--x--2--x--4--x--2-----

A---4--x--2--x--4--x--2-----

E---2--x--0--x--2--x--0-----

 

E-----------------0----------------------------0--------

B-----------------0----------------------------0--------

G-6--6-6-6--6---2-2---4-4-4-4--4-4--4-4--4-4-4-4-4-4-4--

D-6--6-6-6--6---2-2---4-4-4-4--4-4--4-4--4-4-4-4-4-4-4--

A-4--4-4-4--4---0-0---2-2-2-2--2-2--2-2--2-2-2-2-2-2-2--

E-------------------------------------------------------

 

E-----------------0---------------------

B-----------------0---------------------

G-6--6-6-6--6---2-2---4-4-4-4--4-4--4-4-

D-6--6-6-6--6---2-2---4-4-4-4--4-4--4-4-

A-4--4-4-4--4---0-0---2-2-2-2--2-2--2-2-

E---------------------------------------

 

E---------------------------

B---------------------------

G---------------------------

D---4--x--2--x--4--x--2-----

A---4--x--2--x--4--x--2-----

E---2--x--0--x--2--x--0-----

 

Breakdown 2:26

E----------------------------------------------------

B---------0---0-------------0---0-------------0---0--

G-----4-----4-----------4-----4-----------4-----4----

D---2---2-------------2---2-------------2---2--------

A-4---------------4-0---------------4-4--------------

E----------------------------------------------------

 

E------------0-------

B------------0-------

G-------4----4-------

D-----2---2--2------- Repeat 3 times

A-4-0--------0-------

E--------------------

 

E----------------------------------------------------

B---------0---0-------------0---0-------------0---0--

G-----4-----4-----------4-----4-----------4-----4----

D---2---2-------------2---2-------------2---2--------

A-4---------------4-0---------------4-4--------------

E----------------------------------------------------

 

E-----0-----0---------0------

B-2-------------2------------

G---4---4-4---4---4-----4-4--

D----------------------------

A----------------------------

E----------------------------

 

Chorus 2:55

E----------------------------------0-----0-------

B----------------------------------0-----0-------

G-6--6-6-6--6---4--4-4-4--4-4---2--2-2-2-2-2-----

D-6--6-6-6--6---4--4-4-4--4-4---2--2-2-2-2-2-----

A-4--4-4-4--4---2--2-2-2--2-2---0--0-0-0-0-0-----

E------------------------------------------------

 

E---------------------------

B---------------------------

G---------------------------

D---4--x--2--x--4--x--2-----

A---4--x--2--x--4--x--2-----

E---2--x--0--x--2--x--0-----

 

E----------------------------------0-----0-------

B----------------------------------0-----0-------

G-6--6-6-6--6---4--4-4-4--4-4---2--2-2-2-2-2-----

D-6--6-6-6--6---4--4-4-4--4-4---2--2-2-2-2-2-----

A-4--4-4-4--4---2--2-2-2--2-2---0--0-0-0-0-0-----

E------------------------------------------------

 

E---------------------------

B---------------------------

G---------------------------

D---4--x--2--x--4--x--2-----

A---4--x--2--x--4--x--2-----

E---2--x--0--x--2--x--0-----

 

E-----------------0----------------------------0--------

B-----------------0----------------------------0--------

G-6--6-6-6--6---2-2---4-4-4-4--4-4--4-4--4-4-4-4-4-4-4--

D-6--6-6-6--6---2-2---4-4-4-4--4-4--4-4--4-4-4-4-4-4-4--

A-4--4-4-4--4---0-0---2-2-2-2--2-2--2-2--2-2-2-2-2-2-2--

E-------------------------------------------------------

 

E-----------------0---------------------

B-----------------0---------------------

G-6--6-6-6--6---2-2---4-4-4-4--4-4--4-4-

D-6--6-6-6--6---2-2---4-4-4-4--4-4--4-4-

A-4--4-4-4--4---0-0---2-2-2-2--2-2--2-2-

E---------------------------------------

 

E---------------------------

B---------------------------

G---------------------------

D---4--x--2--x--4--x--2-----

A---4--x--2--x--4--x--2-----

E---2--x--0--x--2--x--0-----

 

Outro 3:22

E-----------------------------------------------------

B-----------------------------------------------------

G-6--6-6-6--6-6---4-4---2----6--6-6-6--6-6---2-2------

D-6--6-6-6--6-6---4-4---2----6--6-6-6--6-6---2-2--2---

A-4--4-4-4--4-4---2-2---0----4--4-4-4--4-4---0-0--2---

E-------------------------------------------------0---

 

E-----------------------------------------------------

B-----------------------------------------------------

G-6--6-6-6--6-6---9-9--x--4----6--6-6-6--6-6---2-2----

D-6--6-6-6--6-6---9-9--x--4----6--6-6-6--6-6---2-2--2-

A-4--4-4-4--4-4---7-7--x--2----4--4-4-4--4-4---0-0--2-

E---------------------------------------------------0-

 

Return to my Incubus tabs page

The Tablature is Copyright its respective owners.

Sign Up For My Newsletter
Subscribe | Unsubscribe

Site Map | Disclaimer | Privacy Policy | Media Kit | Submissions/Corrections

Website © 2000-2014 mattsmusicpage.com. All rights reserved.

Legal & DMCA: Matt's Music Page has been providing lyrics and tabs in a legal way, paying royalties each year to a few organizations. Then, all lyrics and tabs were removed from the site. Now, there's a new owner to the site, which purchased it August 26, 2014, and he is in negotiation to obtain licensing from BMI at the moment. If you have a specific DMCA request -- please do not hesitate to contact me via the contact button on top. I will do my very best to keep this site fully legal.

Get our toolbar!

 

1939 LYRIC THEATRE New York PHOTO
$5.83
1939 LYRIC THEATRE New York PHOTO picture


Star Spangled Banner or Marines Hymn lyrics signed by WWII Charles W. Lindberg
$10.0
Star Spangled Banner or Marines Hymn lyrics signed by WWII Charles W. Lindberg picture


OLD LARGE HISTORIC PHOTO OF THE LYRIC THEATRE, SYDNEY c1930s, WAR BONDS BOOTH
$7.42
OLD LARGE HISTORIC PHOTO OF THE LYRIC THEATRE, SYDNEY c1930s, WAR BONDS BOOTH picture


SONG OF REVOLUTION CARD SET WITH 13 MOST FAVORED COMMUNIST SONGS LYRICS + NOTES
$24.99
SONG OF REVOLUTION CARD SET WITH 13 MOST FAVORED COMMUNIST SONGS LYRICS + NOTES picture


OLD LARGE HISTORIC PHOTO OF THE LYRIC THEATRE, SYDNEY c1930s, WAR LOANS BOOTH
$7.42
OLD LARGE HISTORIC PHOTO OF THE LYRIC THEATRE, SYDNEY c1930s, WAR LOANS BOOTH picture