Your One-Stop Source For
Music Lyrics
Bass and Guitar Tabs
and More...
Music Lyrics Bass and Guitar Tabs

 

The Incubus Guitar Tabs Are Below

Learn To Read Tab
Chords Handbook
Corrections & Additions
Get Official Tab
Incubus tabs @ 911Tabs

LIGHT GRENADES

As recorded by Incubus

(From the 2006 Album LIGHT GRENADES)

 

Transcribed by Whoabot

 

 

Words and Music by Incubus

Arranged by Incubus

 

Gtr I (E A D G B E) - 'Lead 1'

Gtr II (E A D G B E) - 'Lead 2'

Gtr III (E A D G B E) - 'Clean'

 

Intro

Q=239

N.C. Gb5 N.C.

4/4

Gtr I

E E E Q E E E E E E E E E E E E E E Q E E E

||-----------------|-----------------|--------------------|

||o----------------|-----------------|--------------------|

||-----------------|-----------------|--------------------|

||-----------------|---------4-4-4---|------------(3)p(0)-|

||o-5-3p0----0-3p0-|-6p0-3p0-4-4-4-0-|-5-3p0----0--3p==0--|

||--------4--------|---------2-2-2---|-------4------------|

|

| Gtr II

| W W W

||-----------------|-----------------|--------------------|

||o----------------|-----------------|--------------------|

||-----------------|-----------------|--------------------|

||-----------------|-----------------|--------------------|

||o----------------|-----------------|--------------------|

||-----------------|-----------------|--------------------|

 

 

1. 2.

Ab7

E E E E E E E E E E E E E E q

|---------------------||--------------------|

|------4-4-4-4-4-----o||-4-4--4--4-4-4-4----|

|------5-5-5-5-5------||-5-5--5--5-5-5-5----|

|-(4)--4-4-4-4-4------||-4-4--4--4-4-4-4----|

|--6p0-6-6-6-6-6-(0)-o||-6-6--6--6-6-6-6----|

|------4-4-4-4-4------||-4-4--4--4-4-4-4----|

|

| <

| W Q H.

|---------------------||--------------------|

|--------------------o||-----[4]------------|

|---------------------||--------------------|

|---------------------||--------------------|

|--------------------o||--------------------|

|---------------------||--------------------|

 

 

N.C. Gb5 N.C.

E E E Q E E E E E E E E E E E

||-----------------|-------------------|

||o----------------|-------------------|

||-----------------|-------------------|

||-----------------|---------4-4-4-----|

||o-5-3p0----0-3p0-|-6p0-3p0-4-4-4-(0)-|

||--------4--------|---------2-2-2-----|

 

 

1. 2.

Ab7

E E E Q E E E E E E E E E q E E E E E E E E

|----------------|-----------------||------------------||

|----------------|---4-4-4-4-4-4--o||------------------||

|----------------|---5-5-5-5-5-5---||-5-5-5-5-5-5-x----||

|----------------|-4-4-4-4-4-4-4---||-4-4-4-4-4-4-x-6--||

|-5-3p0----0-3p0-|-6-6-6-6-6-6-6--o||-6-6-6-6-6-6-x----||

|-------4--------|-4-4-4-4-4-4-4---||-4-4-4-4-4-4-x----||

 

 

Verse

N.C. Fm7

+E E E E Q E E E E E E Q E E E E E E Q E E E E E E Q E E

||-------------------|----------------|----------------|-----------------|

||o-----------7------|---------7------|---------7------|---------7-----9-|

||-------------------|----------------|----------------|---------------8-|

||--(6)-4-x-x----x-4h|=6p4-x-x----x-4h|=6p4-x-x----x-4h|=6p4-x-x----x-10-|

||o------------------|----------------|----------------|---------------8-|

||-------------------|----------------|----------------|-----------------|

 

 

E7+9 N.C.

+E E E E E E E E E E E E E E E E

|---------------------------|-----------------|

|--(9)--9--9--9--9--9--9--9-|-8-8-8-8-8-8-x---|

|--(8)--8--8--8--8--8--8--8-|-7-7-7-7-7-7-x---|

|-(10)-10-10-10-10-10-10-10-|-6-6-6-6-6-6-x-6-|

|--(8)--8--8--8--8--8--8--8-|-7-7-7-7-7-7-x---|

|---------------------------|-----------------|

 

 

+E E E E Q E E E E E E Q E E

|------------------|------------------|

|-----------7------|---------7--------|

|------------------|------------------|

|-(6)-4-x-x----x-4h|=6p4-x-x----x-4h==|

|------------------|------------------|

|------------------|------------------|

 

 

Fm7

E E E E Q E E E E E E Q E E +E E E E E E E E

|----------------|-----------------|---------------------------|

|---------7------|---------7-----9-|--(9)--9--9--9--9--9--9--9-|

|----------------|---------------8-|--(8)--8--8--8--8--8--8--8-|

|-6p4-x-x----x-4h|=6p4-x-x----x-10-|-(10)-10-10-10-10-10-10-10-|

|----------------|---------------8-|--(8)--8--8--8--8--8--8--8-|

|----------------|-----------------|---------------------------|

 

 

E7+9 Fm7 E7+9 Ab7

E E E E E E E E +E E E E E E E E E E E E E E E E

|------------------|---------------------------|---------------4-||

|-8-8-8-8-8-8-8--9-|--(9)--9--9--9--9--9--9--9-|-8-8-8-8-8-x-x-4-||

|-7-7-7-7-7-7-7--8-|--(8)--8--8--8--8--8--8--8-|-7-7-7-7-7-x-x-5-||

|-6-6-6-6-6-6-6-10-|-(10)-10-10-10-10-10-10-10-|-6-6-6-6-6-x-x-4-||

|-7-7-7-7-7-7-7--8-|--(8)--8--8--8--8--8--8--8-|-7-7-7-7-7-x-x-6-||

|------------------|---------------------------|---------------4-||

 

 

horus

G7 E7 Eb7 Ab7

+E E Q E E E E +E E Q E E E E +E E Q E E E E +E E E E Q E E

|-(4)-4-4--4-4-4-3-|-(3)-3-3--3-3-3-0-|-(0)-0-0--0-0-0-3-|-(3)-3-3-3-3--3-4--|

|-(4)-4-4--4-4-4-3-|-(3)-3-3--3-3-3-0-|-(0)-0-0--0-0-0-2-|-(2)-2-2-2-2--2-4--|

|-(5)-5-5--5-5-5-4-|-(4)-4-4--4-4-4-1-|-(1)-1-1--1-1-1-3-|-(3)-3-3-3-3--3-5--|

|-(4)-4-4--4-4-4-3-|-(3)-3-3--3-3-3-0-|-(0)-0-0--0-0-0-1-|-(1)-1-1-1-1--1-4--|

|-(6)-6-6--6-6-6-5-|-(5)-5-5--5-5-5-2-|-(2)-2-2--2-2-2---|----------------6--|

|-(4)-4-4--4-4-4-3-|-(3)-3-3--3-3-3-0-|-(0)-0-0--0-0-0---|----------------4--|

 

 

1.

G7 E7 N.C.

+E E Q E E E E +E E Q E E E E +E E E E Q Q Q Q Q E E

|-(4)-4-4--4-4-4-3-|-(3)-3-3--3-3-3-0-|-(0)-0-0-0-------|---------------||

|-(4)-4-4--4-4-4-3-|-(3)-3-3--3-3-3-0-|-(0)-0-0-0-x--x--|-x--x--x-------||

|-(5)-5-5--5-5-5-4-|-(4)-4-4--4-4-4-1-|-(1)-1-1-1-x--x--|-x--x--x-------||

|-(4)-4-4--4-4-4-3-|-(3)-3-3--3-3-3-0-|-(0)-0-0-0-x--x--|-x--x--x-------||

|-(6)-6-6--6-6-6-5-|-(5)-5-5--5-5-5-2-|-(2)-2-2-2-------|----------0----||

|-(4)-4-4--4-4-4-3-|-(3)-3-3--3-3-3-0-|-(0)-0-0-0-------|----------0-4--||

 

 

Bridge

N.C.

+E E Q Q E E +E E Q E E E E +e E Q Q E E +E E Q E E E E

|-----------------|------------------|-----------------|--------------------||

|-----------------|------------------|-----------------|-------------------o||

|-----------------|------------------|-----------------|--------------------||

|-----------------|------------------|-----------------|----------------6---||

|-----------------|----------x-x-----|----------x--x---|-------------------o||

|-(4)-2-4--x----4-|-(4)-2-4--x-x-2-4-|-(4)-2-4--x--x-4-|-(4)-2-4--x-x-x-----||

 

 

Chorus Extended (first note tied)

2.

E7 Ab7 G7

Q E Q Q. H. E E +E E Q Q E E

|-(0)--0-0-------|-----------4-|-(4)-4-4--4--4-3-|

|-(0)--0-0-------|---------x-4-|-(4)-4-4--4--4-3-|

|-(1)--1-1-------|---------x-5-|-(5)-5-5--5--5-4-|

|-(0)--0-0-------|---------x-4-|-(4)-4-4--4--4-3-|

|-(2)--2-2-------|---------x-6-|-(6)-6-6--6--6-5-|

|-(0)--0-0-------|-----------4-|-(4)-4-4--4--4-3-|

 

 

E7 Eb7

+E E Q Q E E +E E Q Q E E

|-(3)-3-3--3--3-0-|-(0)-0-0--0--0-3---|

|-(3)-3-3--3--3-0-|-(0)-0-0--0--0-2---|

|-(4)-4-4--4--4-1-|-(1)-1-1--1--1-3---|

|-(3)-3-3--3--3-0-|-(0)-0-0--0--0-1---|

|-(5)-5-5--5--5-2-|-(2)-2-2--2--2-----|

|-(3)-3-3--3--3-0-|-(0)-0-0--0--0-----|

 

 

Ab7 G7

+E E E E Q E E +E E Q Q E E

|-(3)-3-3-3-3--3-4-|-(4)-4-4--4--4-3-|

|-(2)-2-2-2-2--2-4-|-(4)-4-4--4--4-3-|

|-(3)-3-3-3-3--3-5-|-(5)-5-5--5--5-4-|

|-(1)-1-1-1-1--1-4-|-(4)-4-4--4--4-3-|

|----------------6-|-(6)-6-6--6--6-5-|

|----------------4-|-(4)-4-4--4--4-3-|

 

 

E7

+E E Q Q E E +Q E Q Q. W

|-(3)-3-3--3--3-0-|-(0)--0-0-------|------||

|-(3)-3-3--3--3-0-|-(0)--0-0-------|------||

|-(4)-4-4--4--4-1-|-(1)--1-1-------|------||

|-(3)-3-3--3--3-0-|-(0)--0-0-------|------||

|-(5)-5-5--5--5-2-|-(2)--2-2-------|------||

|-(3)-3-3--3--3-0-|-(0)--0-0-------|------||

 

 

Bridge

N.C.

PM----------------------------------------------------------------|

e e e q e e e e e e e e e e e e e e q e e e e e e e e e e e

||-----------------|-----------------|----------------|------------------||

||o----------------|-----------------|----------------|-----------------o||

||-----------------|-----------------|----------------|------------------||

||-----------------|-----------------|----------------|------------------||

||o-5-3-0----0-3-0-|-6-0-3-0-6-0-3-0-|-5-3-0----0-3-0-|-6-0-3-0-6-0-3-0-o||

||--------4--------|-----------------|-------4--------|------------------||

 

 

uitar Solo

N.C.

PM------------------------------------------------------

e e e q e e e e e e e e e e e

|-------------------------------|-------------------------|

|-------------------------------|-------------------------|

|-------------------------------|-------------------------|

|-------------------------------|-------------------------|

|--5--3--0--------------0--3--0-|--6--0--3--0--6--0--3--0-|

|-----------4-------------------|-------------------------|

|

| Gtr II

| TP

| E E E E +E E E E E E E E E E E E

|-------------------------13-14-|-15-14-13----14-13-------|

|----------17b19==(17)r16-------|----------16-------16-15-|

|-------------------------------|-------------------------|

|-16h18p16----------------------|-------------------------|

|-------------------------------|-------------------------|

|-------------------------------|-------------------------|

 

 

------------------------------------------------------|

e e e q e e e e e e e e e e e

|-------------------------------|-------------------------|

|-------------------------------|-------------------------|

|-------------------------------|-------------------------|

|-------------------------------|-------------------------|

|--5--3--0--------------0--3--0-|--6--0--3--0--6--0--3-0--|

|-----------4-------------------|-------------------------|

|

| TP

| E E E E +E E E E E E E E E E Q

|-------------------------------|-------------------------|

|----------17b19==(17)r16-15-16-|-15-15-15-15-15-15-15----|

|-------------------------------|-------------------------|

|-16h18p16----------------------|-------------------------|

|-------------------------------|-------------------------|

|-------------------------------|-------------------------|

 

 

PM------------------------------------------------------

e e e q e e e e e e e e e e e

|-------------------------------|-------------------------|

|-------------------------------|-------------------------|

|-------------------------------|-------------------------|

|-------------------------------|-------------------------|

|--5--3--0--------------0--3--0-|--6--0--3--0--6--0--3--0-|

|-----------4-------------------|-------------------------|

|

| TP

| E E E E +E E E E E E E E E E E E

|-------------------------13-14-|-15-14-13----14-13-------|

|----------17b19==(17)r16-------|----------16-------16-15-|

|-------------------------------|-------------------------|

|-16h18p16----------------------|-------------------------|

|-------------------------------|-------------------------|

|-------------------------------|-------------------------|

 

 

------------------------------------------------------|

e e e q e e e e e e e e e e e

|-------------------------------------|------------------|

|-------------------------------------|------------------|

|-------------------------------------|------------------|

|-------------------------------------|------------------|

|--5--3--0--------------------0---3-0-|-6--0-3-0-6-0-3-0-|

|-----------4-------------------------|------------------|

|

| TP

| E E E E +S +S E Q W

|----------14-----(14)-(14)-(14)------|------------------|

|----------17b19==(17)r(17)s=16--15---|------------------|

|-------------------------------------|------------------|

|-16h18p16----------------------------|-x/---------------|

|-------------------------------------|-x/---------------|

|-------------------------------------|-x/---------------|

 

 

E E E Q E E E E E E E E E E E

|---------------------|-----------------------|

|---------------------|-----------------------|

|---------------------|-----------------------|

|---------------------|-----------------------|

|--5-3-0--------0-3-0-|---6--0-3-0-6-0---3--0-|

|--------4------------|-----------------------|

|

| TP TP TP TP

| H H +H. Q

|---------------------|-----------------------|

|---------------------|-----------------12----|

|-11--------11--------|-(11)------------11----|

|-10-------(10)-------|-(10)-----------(10)---|

|--9---------9--------|--(9)-------------9----|

|---------------------|-----------------------|

 

 

E E E Q E E E E E E E E E E E

|--------------------------|------------------------------|

|--------------------------|------------------------------|

|--------------------------|------------------------------|

|--------------------------|------------------------------|

|---5--3---0---------0-3-0-|---6--0---3--0---6--0---3--0--|

|-------------4------------|------------------------------|

|

| TP TP TP TP TP TP

| Q Q H +Q Q Q +Q

|--------------------------|------------------------------|

|---------12---------------|---------12-------------------|

|--11-----11-----11--------|-(11)----11-----11----(11)----|

|-(10)---(10)---(10)-------|-(10)---(10)---(10)---(10)----|

|---9------9------9--------|--(9)-----9------9-----(9)----|

|--------------------------|------------------------------|

 

 

E E E Q E E E E E E E E E E E

|-------------------------|----------------------------|

|-------------------------|----------------------------|

|-------------------------|----------------------------|

|-------------------------|----------------------------|

|--5---3-0-------0--3---0-|---6--0---3-0--6---0-3--0---|

|-----------4-------------|----------------------------|

|

| \7/ /7\ \7/ /7\ \7/ /7\

| Q. Q. Q +E Q. Q. E

|-------------------------|----------------------------|

|-------------------------|----------------------------|

|-11-------11------11-----|-(11)-x-------11-------11---|

|-------------------------|------x---------------------|

|--9--------9-------9-----|--(9)-x--------9--------9---|

|-------------------------|----------------------------|

 

 

E7+9 Ab7

Gtr III

E E E Q E E E E E E E E E E E

|------------------------|----------------------------4--||

|------------------------|-(8)--(8)-(8)-(8)-(8)-(8)-x-4--||

|------------------------|--7----7---7---7---7---7--x-5--||

|------------------------|--6----6---6---6---6---6--x-4--||

|---5--3--0------0---3-0-|--7----7---7---7---7---7--x-6--||

|-------------4----------|----------------------------4--||

|

| \7/ /7\ \7/

| +Q Q. Q. H E Q E

|------------------------|-------------------------------||

|------------------------|-------------------------------||

|-(11)---11------x-------|-11----------------x---x-------||

|----------------x-------|-------------------x---x-------||

|--(9)----9------x-------|--9----------------x---x-------||

|------------------------|-------------------------------||

 

 

Pre-Chorus

G7 E7 Eb7 Ab7

+E E E E Q E E +E E E E Q E E +E E E E Q E E +E E E E Q E E

|-(4)-4-4-4-4--x-3-|-(3)-3-3-3-3--x-0-|-(0)-0-0-0-0--x-3-|-(3)-3-3-3-3--3-4--|

|-(4)-4-4-4-4--x-3-|-(3)-3-3-3-3--x-0-|-(0)-0-0-0-0--x-2-|-(2)-2-2-2-2--2-4--|

|-(5)-5-5-5-5--x-4-|-(4)-4-4-4-4--x-1-|-(1)-1-1-1-1--x-3-|-(3)-3-3-3-3--3-5--|

|-(4)-4-4-4-4--x-3-|-(3)-3-3-3-3--x-0-|-(0)-0-0-0-0--x-1-|-(1)-1-1-1-1--1-4--|

|-(6)-6-6-6-6--x-5-|-(5)-5-5-5-5--x-2-|-(2)-2-2-2-2--x---|----------------6--|

|-(4)-4-4-4-4--x-3-|-(3)-3-3-3-3--x-0-|-(0)-0-0-0-0--x---|----------------4--|

 

 

G7 E7

+E E E E Q E E +E E E E Q E E

|-(4)-4-4-4-4--x-3-|-(3)-3-3-3-3--x-0-|

|-(4)-4-4-4-4--x-3-|-(3)-3-3-3-3--x-0-|

|-(5)-5-5-5-5--x-4-|-(4)-4-4-4-4--x-1-|

|-(4)-4-4-4-4--x-3-|-(3)-3-3-3-3--x-0-|

|-(6)-6-6-6-6--x-5-|-(5)-5-5-5-5--x-2-|

|-(4)-4-4-4-4--x-3-|-(3)-3-3-3-3--x-0-|

|

| Gtr II

| W W

|------------------|------------------|

|------------------|------------------|

|------------------|------------------|

|------------------|------------------|

|------------------|------------------|

|------------------|------------------|

 

 

Ab7

Gtr I

+Q E Q Q. H. E E

|-(0)--0-0-------|-------------------------4--||

|-(0)--0-0-------|-----------------------x-4--||

|-(1)--1-1-------|-----------------------x-5--||

|-(0)--0-0-------|-----------------------x-4--||

|-(2)--2-2-------|-----------------------x-6--||

|-(0)--0-0-------|-------------------------4--||

|

| W E +Q. +E Q.

|----------------|----------------------------||

|----------------|--9------(9)----(9)---------||

|----------------|-11b13==(11)---(11)r========||

|----------------|----------------------------||

|----------------|----------------------------||

|----------------|----------------------------||

 

 

Out-Chorus

G7 E7

+E E E E Q E E +E E E E Q E E

||--(4)-4-4-4-4--4-3-|-(3)-3-3-3-3--3-0-|

||o-(4)-4-4-4-4--4-3-|-(3)-3-3-3-3--3-0-|

||--(5)-5-5-5-5--5-4-|-(4)-4-4-4-4--4-1-|

||--(4)-4-4-4-4--4-3-|-(3)-3-3-3-3--3-0-|

||o-(6)-6-6-6-6--6-5-|-(5)-5-5-5-5--5-2-|

||--(4)-4-4-4-4--4-3-|-(3)-3-3-3-3--3-0-|

|

| Gtr II

| W W

||-------------------|------------------|

||o------------------|------------------|

||-------------------|------------------|

||-------------------|------------------|

||o------------------|------------------|

||-------------------|------------------|

 

 

Eb7 Ab7

+E E E E Q E E +E E E E Q E E

|-(0)-0-0-0-0--0-3-|-(3)-3-3-3-3--3-4--||

|-(0)-0-0-0-0--0-2-|-(2)-2-2-2-2--2-4-o||

|-(1)-1-1-1-1--1-3-|-(3)-3-3-3-3--3-5--||

|-(0)-0-0-0-0--0-1-|-(1)-1-1-1-1--1-4--||

|-(2)-2-2-2-2--2---|----------------6-o||

|-(0)-0-0-0-0--0---|----------------4--||

|

| W H. E E

|------------------|-------------------||

|------------------|------------------o||

|------------------|-------------------||

|------------------|-------------------||

|------------------|------------------o||

|------------------|----------------4--||

 

 

Outro

G7 E7

+E E E E Q E E +E E E E Q E E

||--(4)-4-4-4-4---4-3-|-(3)-3-3-3-3---3-0-|

||o-(4)-4-4-4-4---4-3-|-(3)-3-3-3-3---3-0-|

||--(5)-5-5-5-5---5-4-|-(4)-4-4-4-4---4-1-|

||--(4)-4-4-4-4---4-3-|-(3)-3-3-3-3---3-0-|

||o-(6)-6-6-6-6---6-5-|-(5)-5-5-5-5---5-2-|

||--(4)-4-4-4-4---4-3-|-(3)-3-3-3-3---3-0-|

|

| +E E E E E E E E +E E E E E E E E

||--------------------|-------------------|

||o-------------------|-------------------|

||--------------------|-------------------|

||--------------------|-------------------|

||o-------------------|-------------------|

||--(4)-4-4-4-4-4-4-3-|-(3)-3-3-3-3-3-3-0-|

 

 

Eb7 Ab7

+E E E E Q E E +E E E E Q E E

|-(0)-0-0-0-0---0-3-|-(3)-3-3-3-3---3-4--||

|-(0)-0-0-0-0---0-2-|-(2)-2-2-2-2---2-4-o||

|-(1)-1-1-1-1---1-3-|-(3)-3-3-3-3---3-5--||

|-(0)-0-0-0-0---0-1-|-(1)-1-1-1-1---1-4--||

|-(2)-2-2-2-2---2---|-----------------6-o||

|-(0)-0-0-0-0---0---|-----------------4--||

|

| +E E E E E E E E +E E E E E E E E

|-------------------|--------------------||

|-------------------|-------------------o||

|-------------------|--------------------||

|-------------------|--------------------||

|-----------------6-|-(6)-6-6-6-6-6-6---o||

|-(0)-0-0-0-0-0-0---|-----------------4--||

 

 

G7 E7 Eb7

E E E E E E E E E E E E E E E E E E E E E E E E

||--4-4-4-4-4-4-4-3-|-3-3-3-3-3-3-3-0-|-0-0-0-0-0-0-0-3-|

||o-4-4-4-4-4-4-4-3-|-3-3-3-3-3-3-3-0-|-0-0-0-0-0-0-0-2-|

||--5-5-5-5-5-5-5-4-|-4-4-4-4-4-4-4-1-|-1-1-1-1-1-1-1-3-|

||--4-4-4-4-4-4-4-3-|-3-3-3-3-3-3-3-0-|-0-0-0-0-0-0-0-1-|

||o-6-6-6-6-6-6-6-5-|-5-5-5-5-5-5-5-2-|-2-2-2-2-2-2-2---|

||--4-4-4-4-4-4-4-3-|-3-3-3-3-3-3-3-0-|-0-0-0-0-0-0-0---|

 

 

1. 2.

Ab7 Eb7

E E E E E E E E E E E E E E E E

|-3-3-3-3-3-3-3-4--||-3-3-3-3-3-3-3-3--||

|-2-2-2-2-2-2-2-4-o||-2-2-2-2-2-2-2-2--||

|-3-3-3-3-3-3-3-5--||-3-3-3-3-3-3-3-3--||

|-1-1-1-1-1-1-1-4--||-1-1-1-1-1-1-1-1--||

|---------------6-o||------------------||

|---------------4--||------------------||

 

 

Brandon Scream Of Death

N.C. Gb5 N.C.

E E E Q E E E E E E E E E E E

|----------------|-----------------|

|----------------|-----------------|

|----------------|-----------------|

|----------------|---------4-4-4---|

|-5-3p0----0-3p0-|-6p0-3p0-4-4-4-0-|

|-------4--------|---------2-2-2---|

 

 

Ab7 N.C.

E E E Q E E E E E E E E E E E Wx2

|----------------|-----4-4-4-4-4-4-|--------*|

|----------------|-----4-4-4-4-4-4-|--------*|

|----------------|-----5-5-5-5-5-5-|--------*|

|----------------|-----4-4-4-4-4-4-|--------*|

|-5-3p0----0-3p0-|-6p0-6-6-6-6-6-6-|--------*|

|-------4--------|-----4-4-4-4-4-4-|--------*|

 

 

 

Duration Legend

---------------

W - whole; H - half; Q - quarter; E - 8th; S - 16th; T - 32nd; X - 64th; a - acciaccatura

+ - note tied to previous; . - note dotted; .. - note double dotted

Uncapitalized letters represent notes that are staccato (1/2 duration)

Irregular groupings are notated above the duration line

Duration letters will always appear directly above the note/fret number it represents the

duration for. Duration letters with no fret number below them represent rests. Multi-

bar rests are notated in the form Wxn, where n is the number of bars to rest for. Low

melody durations appear below the staff

 

Tablature Legend

----------------

h - hammer-on

p - pull-off

b - bend

pb - pre-bend

r - bend release (if no number after the r, then release immediately)

/\ - slide into or out of (from/to "nowhere")

s - legato slide

S - shift slide

<n> - natural harmonic

[n] - artificial harmonic

n(n) - tapped harmonic

~ - vibrato

tr - trill

T - tap

TP - trem. picking

PM - palm muting

\n/ - tremolo bar dip; n = amount to dip

\n - tremolo bar down

n/ - tremolo bar up

/n\ - tremolo bar inverted dip

= - hold bend; also acts as connecting device for hammers/pulls

<> - volume swell (louder/softer)

x - on rhythm slash represents muted slash

o - on rhythm slash represents single note slash

 

Misc Legend

-----------

| - bar

|| - double bar

||o - repeat start

o|| - repeat end

*| - double bar (ending)

: - bar (freetime)

$ - Segno

& - Coda

Tempo markers - <E/E./Q/Q./H/H.> = BPM(8/16=s8/s16), where s8 = swing 8ths, s16 = swing 16ths

Return to my Incubus Guitar Tabs page

The Tablature is Copyright its respective owners.

Sign Up For My Newsletter
Subscribe | Unsubscribe

Site Map | Disclaimer | Privacy Policy | Media Kit | Submissions/Corrections

Website © 2000-2014 mattsmusicpage.com. All rights reserved.

Legal & DMCA: Matt's Music Page has been providing lyrics and tabs in a legal way, paying royalties each year to a few organizations. Then, all lyrics and tabs were removed from the site. Now, there's a new owner to the site, which purchased it August 26, 2014, and he is in negotiation to obtain licensing from BMI at the moment. If you have a specific DMCA request -- please do not hesitate to contact me via the contact button on top. I will do my very best to keep this site fully legal.

Get our toolbar!

 

1939 LYRIC THEATRE New York PHOTO
$5.83
1939 LYRIC THEATRE New York PHOTO picture


Star Spangled Banner or Marines Hymn lyrics signed by WWII Charles W. Lindberg
$10.0
Star Spangled Banner or Marines Hymn lyrics signed by WWII Charles W. Lindberg picture


OLD LARGE HISTORIC PHOTO OF THE LYRIC THEATRE, SYDNEY c1930s, WAR BONDS BOOTH
$7.42
OLD LARGE HISTORIC PHOTO OF THE LYRIC THEATRE, SYDNEY c1930s, WAR BONDS BOOTH picture


SONG OF REVOLUTION CARD SET WITH 13 MOST FAVORED COMMUNIST SONGS LYRICS + NOTES
$24.99
SONG OF REVOLUTION CARD SET WITH 13 MOST FAVORED COMMUNIST SONGS LYRICS + NOTES picture


OLD LARGE HISTORIC PHOTO OF THE LYRIC THEATRE, SYDNEY c1930s, WAR LOANS BOOTH
$7.42
OLD LARGE HISTORIC PHOTO OF THE LYRIC THEATRE, SYDNEY c1930s, WAR LOANS BOOTH picture