Your One-Stop Source For
Music Lyrics
Bass and Guitar Tabs
and More...
Music Lyrics Bass and Guitar Tabs

 

The Tabs Are Below

Learn To Read Tab
Chords Handbook
Corrections & Additions
Get Official Tab
Incubus tabs @ 911Tabs

SONG: Favorite Things

BAND: Incubus

ALBUM: S.C.I.E.N.C.E.

TRANSCRIBED BY: Wes Adams (Snwb0rdguy@aol.com)

 

----------------------------------------------------------------------------------------------

 

TUNING: standard tuning (E,A,D,G,B,E)

 

 

INTRO:

 

E|---------------------------------------------------------------|

B|---------------------------------------------------------------|

G|---------------------------------------------------------------|

D|--------------7-7-7---5-5-5-5-5-----------------8-8-8--5-5-5-5-|

A|-0-0-0-1-1-1--7-7-7---5-5-5-5-5---0-0-0-1-1-1---8-8-8--5-5-5-5-|

E|--------------5-5-5---3-3-3-3-3-----------------6-6-6--3-3-3-3-|

pm..... ......... ..... .......

 

VERSE:

 

E|--------------------------------|

B|--------------------------------|

G|--------------------------------|

D|--------------------------------|

A|-0-0---1-1-1--0-0---1-1-1-------|

E|-----0------------0-------------|

pm........................

 

FILL 1: (before second verse)

 

E|---------------------------------------------------------|

B|---------------------------------------------------------|

G|---------------------------------------------------------|

D|---------------------------------------------------------|

A|------------------------6-7------------------------6-7---|

E|--0-0-0-0--5-7--0-0-0-0------0-0-0-0--5-7--0-0-0-0-------|

 

CHORUS:

 

E|-------------------------------------------------|

B|-------------------------------------------------|

G|---------10-10-10----------------10-10-----------|

D|--7-7-7--10-10-10---7---8-8-8-8--10-10-----------|

A|--7-7-7---8--8--8---7---8-8-8-8---8--8-----------|

E|--5-5-5-------------5---6-6-6-6------------------|

 

FILL 2: (after chorus)

 

E|--------------------------------------|

B|--------------------------------------|

G|---7----7-----------------------------|

D|---7----7--6----6--5----5--3----3-----|

A|---5----5--6----6--5----5--3----3-----|

E|-----------4----4--3----3--1----1-----|

 

Return to my Incubus tabs page

The Tablature is Copyright its respective owners.

Get our toolbar!