Your One-Stop Source For
Music Lyrics
Bass and Guitar Tabs
and More...
Music Lyrics Bass and Guitar Tabs

 

The Tabs Are Below

Learn To Read Tab
Chords Handbook
Corrections & Additions
Get Official Tab
Incubus tabs @ 911Tabs

INTRO

G|-------------------------------------|

D|--Just-------------------------------|

A|--wait-------------------------------|

E|--------------------------15\--------|

 

VERSE

G|-------------------------------------|

D|---------------6---------------------|

A|------------4------------------------|

E|--0/3----0---------------------------|

 

PRE-CHORUS

G|------------------------------------------------|

D|-------------------6h7-6------------------------|

A|---4-4--h7-6------------7-4-4--7-6--------------|

E|-------------7-5-5-----------------7-5-7-9-2-4-5|

 

CHORUS

G|-----------------------------------|

D|-----------------------------------|

A|-------6666------------------------|

E|--0000----- 5555--033--------------|

 

Last one...(and after solo)

 

G|-----------------------------------|

D|-----------------------------------|

A|-------6666------------------------|

E|--0000----- 5555--030--------------|

 

And before solo...

G|---------------------|

D|---------------------|

A|---------------------|

E|----030--------------|

 

SOLO

 

G|-------------------------------------|

D|---------------6---------------------|

A|------------4------------------------|

E|--0/3----0---------------------------|

 

Then...

G|-------------------------------------|

D|------------------66-----------------|

A|---------------44--------------------|

E|--33-33-33—-00-----------------------|

 

And last...

G|------------------------------------|

D|------------------------------------|

A|------------------------------------|

E|--0/3-------------------------------|

 

That’s all! Enjoy it! Any comments e-mail me --àthekillermaster@hotmail.com

 

 

 

Return to my Incubus bass tabs page

The Tablature is Copyright its respective owners.

Get our toolbar!