Your One-Stop Source For
Music Lyrics
Bass and Guitar Tabs
and More...
Music Lyrics Bass and Guitar Tabs

 

The Tabs Are Below

Learn To Read Tab
Chords Handbook
Corrections & Additions
Get Official Tab
Incubus tabs @ 911Tabs

Band: Incubus

Song: Sick Sad Little World

Album: A Crow Left Of The Murder

Tunning: Standard (EADG)

 

I looked up the bass tab for this song and guy that did it tabbed part of it right

and part of it wrong. So then I looked up the guitar tab and he did it partly

right and partly wrong. So I added the two toghether to create the bass tab.

Thanks Alex Parker for the bass parts, and user: "addictive" for the guitar parts.

Also thanks to user: "Bassmaster2" for the corrected bridge.

 

Intro and Chorus

 

G||-------------------------------------------------------|

D||------------------4----------h2------------------------| (you dont have to do all

A||------4---4-------------0h2h4---4-2-0-2-4-4--4-4--x-x--| hammer-ons for the one

E||--0-4---4---4-0-4---4-0--------------------------------| part, but i do)

 

Verse

 

G||--------------------------------------------------|

D||--------------------------------------------------|

A||--------------------------------------------------|

E||--9999999------9999999555555502222---000012121212-| (thats 12th fret at the end)

 

Pre-Chorus

 

G||--------------------------------------------------|

D||--------------------------------------------------|

A||----9~~~~~~4~~~~~~~~9~~~~4~~7~~0------------------| (2 times before chorus)

E||--------------------------------------------------|

 

Bridge

 

G||------------------------------------------------------11/9------|

D||----4---------------4---------------4------------------9/7------|

A||------4--2--4--2--4---4--2--4--2--4---4--2--4--2----------------| (Repeats Alot)

E||----------------------------------------------------------------|

 

If you dont understand the order then do through them and play them then listen to

the song and you'll get. Any questions? stoop07@hotmail.com

 

 

Return to my Incubus bass tabs page

The Tablature is Copyright its respective owners.

Sign Up For My Newsletter
Subscribe | Unsubscribe

Site Map | Disclaimer | Privacy Policy | Media Kit | Submissions/Corrections

Website © 2000-2014 mattsmusicpage.com. All rights reserved.

Legal & DMCA: Matt's Music Page has been providing lyrics and tabs in a legal way, paying royalties each year to a few organizations. Then, all lyrics and tabs were removed from the site. Now, there's a new owner to the site, which purchased it August 26, 2014, and he is in negotiation to obtain licensing from BMI at the moment. If you have a specific DMCA request -- please do not hesitate to contact me via the contact button on top. I will do my very best to keep this site fully legal.

Get our toolbar!