Your One-Stop Source For
Music Lyrics
Bass and Guitar Tabs
and More...
Music Lyrics Bass and Guitar Tabs

 

The Tabs Are Below

Learn To Read Tab
Chords Handbook
Corrections & Additions
Get Official Tab
Incubus tabs @ 911Tabs

Song: Nebula

Artist: Incubus

Album: S.C.I.E.N.C.E.

Tabbed by Spooney (spoonbass@users.basstabarchive.com)

 

I did try to get away with a drop-D tuning but it wasn't to be, so unless

you try tuning your E down to B and arranging the song accordingly, it's

clearly not possible. Cheers to Rob Millard for lending me his 5-string so I

could get this tab done. Check out Rob's own tabbing ability on some of the

(hed)PE tabs he's done, if you like the band.

As for the song itself, it was extremely difficult to label the parts

properly, so I hope it's understandable.

 

Verse (drum and bass part)

G|---------------------|

D|*-------------------*|

A|---------------------|

E|*-11--11-11--11-7-7-*|x8

B|---------------------|

 

Heavy part

G|-------||-------------------| |------------|

D|-------||*-----------------*| |------------|

A|-----6-||-------6--------6--|x3|------6---6-|

E|-5-5---||*-5-55---5-5555---*| |-5-55---5---|

B|-------||-------------------| |------------|

 

Interlude 1 (very fast tempo)

G|-----------------| |--------------------|

D|---4-2-0-2-0-----| |--------------------|

A|-2-----------4-5-|x3|--------------------|

E|-----------------| |-3--3-3-3--5--5-5-5-|

B|-----------------| |--------------------|this leads to...

 

Break

G|--------------|--------------|--------------|---------------|

D|--------------|--------------|--------------|---------------|

A|--------------|--------------|--------------|------------2\-|

E|--------------|--------------|--------------|---------------|

B|-3-333-333----|-3-333-333----|-33-33-333----|-3-333-333-----|

 

Play verse, heavy part and interlude 1 again, leading to...

Break variation

G|--------------|--------------|--------------|------------------|

D|--------------|--------------|--------------|------------------|

A|--------------|--------------|--------------|------------2/7~\-|

E|--------------|--------------|--------------|------------------|

B|-3-333-333----|-3-333-333----|-33-33-333----|-3-333-333--------|

 

This flows directly into interlude 2:

G|-----------------| |---------------|

D|---4-2-0-2-0-----| |---------------|

A|-2-----------4-5-|x3|---------------|

E|-----------------| |---------------|

B|-----------------| |-0------1------|

 

Play interlude 2 through 3 times, then play:

G|--------------------------|

D|--------------------------|

A|--------------------------|

E|-------------3------------|

B|-0-----3-----------1------|

 

Now play:

G|----------------|----------------|---------------|--------------|

D|----------------|----------------|---------------|--------------|

A|-----5------5---|-----5------5---|-----5---------|-----5------5-|

E|----------------|----------------|---------------|--------------|

B|-3-3---3-33-----|-3-3---3-33-----|-3-3---3-333---|-3-3---3-33---|

 

Followed by the final heavy part

G|-------||-------------------| |------------|

D|-------||*-----------------*| |------------|

A|-----6-||-------6--------6--|x3|------6---6-|

E|-5-5---||*-5-55---5-5555---*| |-5-55---5---|

B|-------||-------------------| |------------|

 

Play through interlude 1 3 times, and finish straight after with:

G|----------------|

D|----------------|

A|----------------|

E|-7--------------|

B|-0-(hold)-------|

 

 

Return to my Incubus bass tabs page

The Tablature is Copyright its respective owners.

Sign Up For My Newsletter
Subscribe | Unsubscribe

Site Map | Disclaimer | Privacy Policy | Media Kit | Submissions/Corrections

Website © 2000-2014 mattsmusicpage.com. All rights reserved.

Legal & DMCA: Matt's Music Page has been providing lyrics and tabs in a legal way, paying royalties each year to a few organizations. Then, all lyrics and tabs were removed from the site. Now, there's a new owner to the site, which purchased it August 26, 2014, and he is in negotiation to obtain licensing from BMI at the moment. If you have a specific DMCA request -- please do not hesitate to contact me via the contact button on top. I will do my very best to keep this site fully legal.

Get our toolbar!

 

Hard Rock Pin Las Vegas 4th of july red white and blue guitar
$5.0
Hard Rock Pin Las Vegas 4th of july red white and blue guitar picture


Hard Rock Pin Hollywood Fl Bell Girl with dice luggage and guitar
$5.0
Hard Rock Pin Hollywood Fl Bell Girl with dice luggage and guitar picture


Hard Rock Pin Las Vegas King of Clubs Guitar rare only 3 lines of info on back
$5.0
Hard Rock Pin Las Vegas King of Clubs Guitar rare only 3 lines of info on back picture


Hard Rock Pin Edmonton guitar pin
$5.0
Hard Rock Pin Edmonton guitar pin picture


Lladro Guitar Boy #4614 - Beautiful Piece of Lladro
$109.0
Lladro Guitar Boy #4614 - Beautiful Piece of Lladro picture