Your One-Stop Source For
Music Lyrics
Bass and Guitar Tabs
and More...
Music Lyrics Bass and Guitar Tabs

 

The Tabs Are Below

Learn To Read Tab
Chords Handbook
Corrections & Additions
Get Official Tab
Incubus tabs @ 911Tabs

Intro

G||-14/16-14/16----------|----14h16--14---------------------|

D||-14/16-14/16--16------|--------------16------------------|

A||-----------------14/--|----------------------------------|

E||----------------------|----------------------------------|

 

verse

G||------------------------2-2h4p2-|----------------------------------|

D||------------------4---2---------|----------------------------------|

A||--5-5-2-------------------------|--5-5-2---------2-2-1-2-----------|

E||--------5-5-5-2-2---2-----------|--------5-5-5-2---------0-1-2-(0)-|

 

chorus repeat twice.

G||---------------------------|----------|

D||---------------------------|----------|

A||-5-5-5-5-------------------|----------|

E||---------5-5-5-5-2-2-2-2-2-|-3-3-5-5--|

 

Breakdown

G||---------0-----2-----4---------|

D||-------0-----2-----4-----------|

A||-7-----------------------7-----|

E||-0-0-------3-----5---------7---|

 

or

G||-------------------------|

D||---------5----7----------|

A||--------7----9-----10-7--|

E||--3-0--7----7----7-------|

 

G||-14h16--14---------------------|

D||-----------16------------------|

A||-------------------------------|

E||-------------------------------|

 

then the verse and chrous..

 

Return to my Incubus bass tabs page

The Tablature is Copyright its respective owners.

Sign Up For My Newsletter
Subscribe | Unsubscribe

Site Map | Disclaimer | Privacy Policy | Media Kit | Submissions/Corrections

Website © 2000-2014 mattsmusicpage.com. All rights reserved.

Legal & DMCA: Matt's Music Page has been providing lyrics and tabs in a legal way, paying royalties each year to a few organizations. Then, all lyrics and tabs were removed from the site. Now, there's a new owner to the site, which purchased it August 26, 2014, and he is in negotiation to obtain licensing from BMI at the moment. If you have a specific DMCA request -- please do not hesitate to contact me via the contact button on top. I will do my very best to keep this site fully legal.

Get our toolbar!

 

Starbucks You Are Here Coffee Mug/Cup KENTUCKY - Horses, Banjo, Blue, White
$19.99
Starbucks You Are Here Coffee Mug/Cup KENTUCKY - Horses, Banjo, Blue, White picture


KNOWLES ROCKWELL HERITAGE "THE BANJO PLAYER" FIRST EDITION 1989 PLATE COA
$5.99
KNOWLES ROCKWELL HERITAGE


Vintage Postcard 1981 Disney World Banjo Kings Main Street USA 1981 Postmark
$4.99
 Vintage Postcard 1981 Disney World Banjo Kings Main Street USA 1981 Postmark picture


Banjo Barometer With Thermometer Hygrometer 490mm
$84.76
Banjo Barometer With Thermometer Hygrometer 490mm picture


ANTIQUE JAPANESE NIPPON FIGURINE SET OF 3 WOMEN GEISHA PLAYING DRUM BANJO FAN
$24.0
ANTIQUE JAPANESE NIPPON FIGURINE SET OF 3 WOMEN GEISHA PLAYING DRUM BANJO FAN picture