Your One-Stop Source For
Music Lyrics
Bass and Guitar Tabs
and More...
>Music Lyrics Bass and Guitar Tabs

 

The Tabs Are Below

Learn To Read Tab
Chords Handbook
Corrections & Additions
Get Official Tab
Incubus tabs @ 911Tabs

This is the 4-string version of this song. You should find that it is exact.

 

G-----------------------------------|-----4--7--4----7------7------7-----9---

D-----------------------------------|----------------------------------------

A-------2-------2-----------------1-|-2-------------------------------------0

E------------------------9----------|----------------------------------------

 

G-----------------------------------|----------------------------------------

D-------4---------------------------|--------4-------------------4-----------

A----------0------0-----1-----------|----2------0---0--1-----2------0---0---1

E----7------------------------------|----------------------------------------

 

G-----------------------------------|---------------------------------|

D-------4-----------2--0--------0--2|--------4------------------------|repeat

A--2--------0---0---------2--0------|----2-------0----------0------1--| 4x

E-----------------------------------|---------------------------------|

 

G-----------------------------------|---------------------------------|

D-----------------------------------|--------4------------------------|repeat

A--2--------2---2---------x-----x---|----2-------0----------0------1--| 7x

E-----------------------------------|---------------------------------|

 

G-----------------------------------|---------------------------------|

D-------4---------------------------|--------4------------------------|repeat

A--2--------0---2---2---2----2------|----2-------0----------0------1--| 8x

E-----------------------------------|---------------------------------|

PRE-CHORUS

G---------------4---2---4----2------|-----------------------2---------|

D--2----2---2-----------------------|----0---0---0----4----------4----|

A-----------------------------------|---------------------------------|

E-----------------------------------|---------------------------------|

 

G-----------------------------------|--------------0--0--0---0--0--0--|

D-----------------------------------|---------------------------------|

A--1----1----1---------1----1----1--|--2----2---2---------------------|

E-----------------------------------|---------------------------------|

 

G---------------4----4----4---------|---------------2-----------------|

D--2--2--2----------------------4---|--0---0---0-----------4----4--0--|

A-----------------------------------|---------------------------------|

E-----------------------------------|---------------------------------|

 

G-----------------------------------|------------------------------2--|

D-----------------------------------|---------------------------------|

A--1----1---1---------1---1----1----|--2---2----2---2----2---2--------|

E-----------------------------------|---------------------------------|

 

G-----------------------------------|---------------------------------|

D---------4-------------------------|---------4-----------------------|

A----2---------0---------0----1-----|----2---------0---------0----1---|

E-----------------------------------|---------------------------------|

 

G-----------------------------------|---------------------------------|

D---------4-------------------------|------4-----------2--0------0--2-|

A----2---------0---------0----1-----|--2--------0---0-------2--0------|

E-----------------------------------|---------------------------------|

 

G-----------------------------------|---------------------------------|

D---------4-------------------------|---------4-----------------------|

A----2---------0---------0----1-----|----2---------0---------0----1---|

E-----------------------------------|---------------------------------|

 

G-----------------------------------|---------------------------------|

D---------4-------------------------|---------4-----------------------|

A----2---------0---------0----1-----|----2---------0---------0----1---|

E-----------------------------------|---------------------------------|

 

G-----------------------------------|------------------2--------------|

D-----------------------------------|------------------0-------6------|

A-----------------------------------|--4----2----4-------------4------|

E--3-----------3-----------3--------|--2----0----2--------------------|

 

 

Return to my Incubus bass tabs page

The Tablature is Copyright its respective owners.

Sign Up For My Newsletter
Subscribe | Unsubscribe

Site Map | Disclaimer | Privacy Policy | Media Kit | Submissions/Corrections

Website © 2000-2014 mattsmusicpage.com. All rights reserved.

Legal & DMCA: Matt's Music Page has been providing lyrics and tabs in a legal way, paying royalties each year to a few organizations. Then, all lyrics and tabs were removed from the site. Now, there's a new owner to the site, which purchased it August 26, 2014, and he is in negotiation to obtain licensing from BMI at the moment. If you have a specific DMCA request -- please do not hesitate to contact me via the contact button on top. I will do my very best to keep this site fully legal.

Get our toolbar!

 

Walt Disney Schmid Snow White 7 Dwarves Happy Rotating Music Box Vintage
$3.0
Walt Disney Schmid Snow White 7 Dwarves Happy Rotating Music Box Vintage picture


Vintage Crowning Touch Special Gifts Music Box Farmer Cat Couple
$3.0
Vintage Crowning Touch Special Gifts Music Box Farmer Cat Couple picture


VTG 1985 Chinese Shouxing musical Baoding Blue Iron Stress Ball. Set with Case
$13.99
VTG 1985 Chinese Shouxing musical Baoding Blue Iron Stress Ball. Set with Case picture


VINTAGE RAGGEDY ANN AND ANDY DOLL MUSIC BOX MARKED JAPAN MUSICAL BOX FIGURINE
$24.99
VINTAGE RAGGEDY ANN AND ANDY DOLL MUSIC BOX MARKED JAPAN MUSICAL BOX FIGURINE picture


VINTAGE 1987 GEORGE GOOD MUSIC BOX "MY BEAUTIFUL BALLOON" HOT AIR BALLOON 034
$9.95
VINTAGE 1987 GEORGE GOOD MUSIC BOX