Your One-Stop Source For
Music Lyrics
Bass and Guitar Tabs
and More...
Music Lyrics Bass and Guitar Tabs

 

The Tabs Are Below

Learn To Read Tab
Chords Handbook
Corrections & Additions
Get Official Tab
Hoobastank tabs @ 911Tabs

For the sake of argument, some of these chord names you will see are not actually those

names in real life; these are names I've labeled to chords because I didn't know the real

chord names. If anyone knows those chords names, please leave feedback if you wish.

This isn't perfect but I took it from the MTV.com live acoustic performance by Doug and Dan

 

Verse:

 

R:

 

B[-----------]

G[---9x9x9---]

D[---9x9x9---]

A[---7x7x7---]

E[-----------]

 

S:

 

e[---------------]

B[---------------]

G[---------------]

D[--11x11x11-----]

A[--11x11x11-----]

E[---9x9x-9------]

 

A: Bsus

 

e[----------] [-----------]

B[---2x2x2--] [-----------]

G[---2x2x2--] [---4x4x4---]

D[---2x2x2--] [---4x4x4---]

A[----------] [---2x2x2---]

E[----------] [-----------]

 

 

Chorus:

 

E C#m7 Q Z

E[-0---0---0---0--]

B[-0---0---0---0--]

G[-1---6---0---0--]

D[-2---6---7---9--]

A[-2---4---7---9--]

E[-0-------5---7--]

 

 

 

 

Bridge:

 

E D*

E[-0---2h3p2--]

B[-0---3------]

G[-2---2------]

D[-2----------]

A[-1----------]

E[-0----------]

 

Intro:

 

e|---------------------------------------------------------------|

B|-------------7--9-----7--9-----7--9-----7--9-------------------|

G|------------------8--9------8-------8--9----8------------------|

D|---------------------------------------------------------------|

A|----7-7-7-7-7-7-7-7-7-77--7--7--7-7-7-7-7-7--------------------|

E|------------------------------0-0-0-0-0-0-0--------------------|

 

 

R S

I'm not a perfect person

R

There are many things I wish I didn't do

S

But I continue learning

A

I never meant to do those things to you

Bsus

and so I have to say before I go

E

that I just want you to know

 

 

 

Chorus:

 

C#m7 Q

I've found a reason for me, to change who I used to be

Z R

a reason to start over new, and the reason is you

 

 

 

Verse:

 

S

I'm sorry that I hurt you

R

It's something I must live with everyday

S

and all the pain I put you through

A

I wish that I could take it all away

 

 

 

Bsus

and be the one who catches all your tears

E

thats why I need you to hear

 

 

Chorus:

 

C#m7 Q

I've found a reason for me, to change who I used to be

Z D*

a reason to start over new, and the reason is you

 

 

Bridge:

 

E

and the reason is you

D*

and the reason is you

E

and the reason is you

 

 

 

Verse:

 

S

I'm not a perfect person

R

I never meant to do those things to you

Bsus

and so I have to say before I go

E

that I just want you to know

 

 

Chorus:

 

C#m7 Q

I've found a reason for me, to change who I used to be

Z E

a reason to start over new, and the reason is you

 

 

C#m7

I've found a reason to show

A

a side of me you didn't know

Bsus

a reason for all that I do

E

and the reason is you

 

 

Return to my Hoobastank tabs page

The Tablature is Copyright its respective owners.

Sign Up For My Newsletter
Subscribe | Unsubscribe

Site Map | Disclaimer | Privacy Policy | Media Kit | Submissions/Corrections

Website © 2000-2014 mattsmusicpage.com. All rights reserved.

Legal & DMCA: Matt's Music Page has been providing lyrics and tabs in a legal way, paying royalties each year to a few organizations. Then, all lyrics and tabs were removed from the site. Now, there's a new owner to the site, which purchased it August 26, 2014, and he is in negotiation to obtain licensing from BMI at the moment. If you have a specific DMCA request -- please do not hesitate to contact me via the contact button on top. I will do my very best to keep this site fully legal.

Get our toolbar!