Your One-Stop Source For
Music Lyrics
Bass and Guitar Tabs
and More...
Music Lyrics Bass and Guitar Tabs

 

The Tabs Are Below

Learn To Read Tab
Chords Handbook
Corrections & Additions
Get Official Tab
Hoobastank tabs @ 911Tabs

Author/Artist: Hoobastank

Title: Pieces (Acoustic)

Album: Hoobastank

Transcribed by: Robert Karlsson

Email: bobbe@welho.com

 

Tuning: Open E tuning (E B G# E B E, high to low)

 

-----7----|-----7----|-----7----|-----7----|-----7----|-----7----|----7-------

-----8----|-----8----|-----8----|-----8----|-----8----|-----8----|-8--8-------

-----10---|-----10---|-----10---|-----10---|-----10---|-----10---|-10-10------

-----x----|-----x----|-----x----|-----x----|-----x----|-----x----|-x--x-------

----------|----------|----------|----------|----------|----------|-0--0-------

-0-0------|-0-0------|-0-0------|-0-0------|-0-0------|-0-0------|-0--0-------

Intro:

 

-|-7--7--7--7--|--------------------------------------------------------------

-|-8--8--8--8--|--------------------------------------------------------------

-|-10-10-10-10-|--------------------------------------------------------------

-|-x--x--x--x--|--------------------------------------------------------------

-|-0--0--0--0--|--------------------------------------------------------------

-|-0--0--0--0--|--------------------------------------------------------------

 

 

---------|---------|---------|---------|---------|---------|---------|--------

---------|---------|---------|---------|---------|---------|---------|--------

---------|---------|---------|---------|---------|---------|---------|--------

-5/7---7-|-7-------|---------|---------|-5/7---7-|-7-------|---------|--------

-3/5---5-|-5-6---6-|-6-5---5-|-5-0---0-|-3/5---5-|-5-6---6-|-6-5-x-x-|-6-5-0--

---------|---6---6-|-6-5---5-|-5-0---0-|---------|---6---6-|-6-5-x-x-|-6-5-0--

Intro B:

 

---|---------|---------|---------|---------|------------|------------|--------

---|---------|---------|---------|---------|------------|------------|--------

---|---------|---------|---------|---------|-11---11-11-|-11---11-11-|-6-6-6--

---|-5/7---7-|-7-------|---------|---------|-10---10-10-|-10---10-10-|-5-5-5--

-0-|-3/5---5-|-5-6---6-|-6-5---5-|-5-0---0-|-8----8--8--|-8----8--8--|-3-3-3--

-0-|---------|---6---6-|-6-5---5-|-5-0---0-|-8----8--8--|-8----8--8--|-3-3-3--

 

 

---|---------|----------------------------------------------------------------

---|---------|----------------------------------------------------------------

-6-|-8-8-8-8-|----------------------------------------------------------------

-5-|-7-7-7-7-|----------------------------------------------------------------

-3-|-5-5-5-5-|----------------------------------------------------------------

-3-|-5-5-5-5-|----------------------------------------------------------------

 

 

---------|---------|---------|---------|---------|---------|---------|--------

---------|---------|---------|---------|---------|---------|---------|--------

---------|---------|-x-x---x-|-x-x---x-|---------|---------|---------|--------

-5/7---7-|-7-------|-x-x---x-|-x-x---x-|-5/7---7-|-7-------|---------|--------

-3/5---5-|-5-6---6-|-x-x---x-|-x-x---x-|-3/5---5-|-5-6---6-|-6-5-x-x-|-6-5-x--

---------|---6---6-|-x-x---x-|-x-x---x-|---------|---6---6-|-6-5-x-x-|-6-5-x--

Verse 1:

 

---|---------|---------|---------|---------|------------|------------|--------

---|---------|---------|---------|---------|------------|------------|--------

---|---------|---------|-x-x---x-|-x-x---x-|-11---11-11-|-11---11-11-|-6-6-6--

---|-5/7---7-|-7-------|-x-x---x-|-x-x---x-|-10---10-10-|-10---10-10-|-5-5-5--

-x-|-3/5---5-|-5-6---6-|-x-x---x-|-x-x---x-|-8----8--8--|-8----8--8--|-3-3-3--

-x-|---------|---6---6-|-x-x---x-|-x-x---x-|-8----8--8--|-8----8--8--|-3-3-3--

 

 

---|---------|----------------------------------------------------------------

---|---------|----------------------------------------------------------------

-6-|-8-8-8-8-|----------------------------------------------------------------

-5-|-7-7-7-7-|----------------------------------------------------------------

-3-|-5-5-5-5-|----------------------------------------------------------------

-3-|-5-5-5-5-|----------------------------------------------------------------

(2x)

 

-------|--7---|--7---|------|------|-----|-----|------|------|----------------

-------|--8---|--8---|------|------|-----|-----|------|------|----------------

-------|--10--|--10--|--11--|--11--|--8--|--8--|--11--|--13--|----------------

-------|--x---|--x---|--10--|--10--|--7--|--7--|--10--|--12--|----------------

-------|--0---|--0---|--8---|--8---|--5--|--5--|--8---|--10--|----------------

-------|--0---|--0---|--8---|--8---|--5--|--5--|--8---|--10--|----------------

Chorus: (2x)

 

---------|---------|---------|---------|-----7----|-----7----|-----7----|-----

---------|---------|---------|---------|-----8----|-----8----|-----8----|-----

---------|---------|---------|---------|-----10---|-----10---|-----10---|-----

-5/7---7-|-7-------|---------|---------|-----x----|-----x----|-----x----|-----

-3/5---5-|-5-6---6-|-6-5---5-|-5-0---0-|----------|----------|----------|-----

---------|---6---6-|-6-5---5-|-5-0---0-|-0-0------|-0-0------|-0-0------|-0---

Intro to verse 2:

 

-7--7--7--|-------------------------------------------------------------------

-8--8--8--|-------------------------------------------------------------------

-10-10-10-|-------------------------------------------------------------------

-x--x--x--|-------------------------------------------------------------------

-0--0--0--|-------------------------------------------------------------------

-0--0--0--|-------------------------------------------------------------------

 

 

Verse 2:

 

 

Chorus:

 

-----7----|-----7----|-----7----|-----7---|-7--7--7----|-7--7--7--7--|---7----

-----8----|-----8----|-----8----|-----8---|-8--8--8----|-8--8--8--8--|---8----

-----10---|-----10---|-----10---|-----10--|-10-10-10---|-10-10-10-10-|---10---

-----x----|-----x----|-----x----|-----x---|-x--x--x----|-x--x--x--x--|---x----

----------|----------|----------|---------|-0--0--0----|-0--0--0--0--|---0----

-0-0------|-0-0------|-0-0------|-0-0-----|-0--0--0----|-0--0--0--0--|---0----

Intro to interlude:

 

--7--|-7--7--7--7--|----------------------------------------------------------

--8--|-8--8--8--8--|----------------------------------------------------------

--10-|-10-10-10-10-|----------------------------------------------------------

--x--|-x--x--x--x--|----------------------------------------------------------

--0--|-0--0--0--0--|----------------------------------------------------------

--0--|-0--0--0--0--|----------------------------------------------------------

 

 

----------|--0---|--0---|--0---|--0---|------|------|-----|-----|-------------

----------|--12--|--12--|--12--|--12--|------|------|-----|-----|-------------

----------|--11--|--11--|--11--|--11--|--11--|--11--|--6--|--6--|-------------

----------|--0---|--0---|--0---|--0---|--10--|--10--|--5--|--5--|-------------

----------|--0---|--0---|--0---|--0---|--8---|--8---|--3--|--3--|-------------

----------|--0---|--0---|--0---|--0---|--8---|--8---|--3--|--2--|-------------

Interlude:

 

----------|--0---|--0---|--0---|--0---|------|------|-----|-----|-------------

----------|--12--|--12--|--12--|--12--|------|------|-----|-----|-------------

----------|--11--|--11--|--11--|--11--|--11--|--11--|--6--|--8--|-------------

----------|--0---|--0---|--0---|--0---|--10--|--10--|--5--|--7--|-------------

----------|--0---|--0---|--0---|--0---|--8---|--8---|--3--|--5--|-------------

----------|--0---|--0---|--0---|--0---|--8---|--8---|--3--|--5--|-------------

 

 

----------|--0---|--0---|------|------|-----|-----|------|------|-------------

----------|--0---|--0---|------|------|-----|-----|------|------|-------------

----------|--11--|--11--|--11--|--11--|--8--|--8--|--11--|--13--|-------------

----------|--12--|--12--|--10--|--10--|--7--|--7--|--10--|--12--|-------------

----------|--0---|--0---|--8---|--8---|--5--|--5--|--8---|--10--|-------------

----------|--0---|--0---|--8---|--8---|--5--|--5--|--8---|--10--|-------------

 

 

Chorus:

 

---------|---------|---------|---------|---------|---------|---------|--------

---------|---------|---------|---------|---------|---------|---------|--------

---------|---------|---------|---------|---------|---------|---------|--------

-5/7---7-|-7-------|---------|---------|-5/7---7-|-7-------|---------|--------

-3/5---5-|-5-6---6-|-6-5---5-|-5-0---0-|-3/5---5-|-5-6---6-|-6-5---5-|-5-0----

---------|---6---6-|-6-5---5-|-5-0---0-|---------|---6---6-|-6-5---5-|-5-0----

Outro:

 

---|---------|---------|---------|---------|---------|---------|---------|----

---|---------|---------|---------|---------|---------|---------|---------|----

---|---------|---------|---------|---------|---------|---------|---------|----

---|-5/7---7-|-7-------|---------|---------|-5/7---7-|-7-------|---------|----

-0-|-3/5---5-|-5-6---6-|-6-5---5-|-5-0---0-|-3/5---5-|-5-6---6-|-6-5-x-x-|-6--

-0-|---------|---6---6-|-6-5---5-|-5-0---0-|---------|---6---6-|-6-5-x-x-|-6--

 

 

-------|----------------------------------------------------------------------

-------|----------------------------------------------------------------------

-------|----------------------------------------------------------------------

-------|----------------------------------------------------------------------

-5-----|----------------------------------------------------------------------

-5-----|----------------------------------------------------------------------

 

 

Return to my Hoobastank tabs page

The Tablature is Copyright its respective owners.

Sign Up For My Newsletter
Subscribe | Unsubscribe

Site Map | Disclaimer | Privacy Policy | Media Kit | Submissions/Corrections

Website © 2000-2014 mattsmusicpage.com. All rights reserved.

Legal & DMCA: Matt's Music Page has been providing lyrics and tabs in a legal way, paying royalties each year to a few organizations. Then, all lyrics and tabs were removed from the site. Now, there's a new owner to the site, which purchased it August 26, 2014, and he is in negotiation to obtain licensing from BMI at the moment. If you have a specific DMCA request -- please do not hesitate to contact me via the contact button on top. I will do my very best to keep this site fully legal.

Get our toolbar!