Your One-Stop Source For
Music Lyrics
Bass and Guitar Tabs
and More...
Music Lyrics Bass and Guitar Tabs

 

The Tabs Are Below

Learn To Read Tab
Chords Handbook
Corrections & Additions
Get Official Tab
Hoobastank tabs @ 911Tabs

Hoobastank: Pieces

Drummer: Chris Hesse

 

Tabbed by WACKER

 

the numbers mean that many 32nd notes, sometimes i put it in 2/4 to better show you

what Chris is doing and simplyblink03 copied my tab for this song, they are

like the EXACT same...

 

Intro - Play 1st measure 3x then first ending, 2x then second ending

|3x 1st----2x 2nd|--------1st time ending----------|2nd time end----|

R |x-x-x-x-x-x-x-x-|x-x-x-x-x-x-x---|--x-x-x-x-x-x-x-|X-X-X-X-X-X-X-X-|

H |----------------|--------------X-|----------------|----------------|

S |-g--o--d----o---|-g--o--d-----o--|oo--o-------o---|-g--o--d----o---|

B |o-o---o-o-------|o-o---o-o-------|------o-o-------|o-o---o-o-------|

24

C |x-x-x-x-x-x-x-x-|x-x-x-x-x-x-x---|x-x-x-x-x-x-----|x-x-x---X-X---X-|

H |----------------|--------------x-|------------X---|----------------|

t |----------------|----------------|----------------|------------33--|

S |----o--o--o---o-|----o--o--o---o-|----o-------o---|----o-2---o---o-|

B |o--o----oo--oo--|o--o----oo--oo--|o-oo--o-o-oo-o-o|o--o---oo-----o-|

 

Verse 1 - 36

|------11x-------|----------------|

C |X---------------|----X---X-------|

R |--x-x-x-x-x-x-x-|x-x-------------|

H |----------------|------x---------|

S |----o-------o---|----o-------o-22|

B |o-o---o-o-------|o-oo----o-------|

 

Chorus 1 - 1:10

|--------Repeat Once first measure different-------|1st Measure - 1:22

|-------2x-------| * |-------2x-------|

C |x-x-x-x-x-x-x---|x-x-x-x-x-x-----|x-x-x---X-X---X-|x-x-x-x-x-x-x---|

H |-------------X--|------------X---|----------------|-------------X--|

t |----------------|----------------|------------33--|----------------|

S |----o--o--o-o---|----o-------o---|----o-2---o---o-|----o--o-o--o---|

B |o--o----oo---o--|o--o--o-o--o-o-o|o--o---oo-------|o--o--o-o--o-o--|

 

Verse 2 - 1:34 Same Speed |-------2x-------|

C |X---------------|----------------|------------X---|X---------------|

R |--xxx-x-x-x-x-x-|x---x-x-x-x-x-x-|x---------------|--x-x-x-x-x-x-x-|

t |----------------|----------------|---oo-oo--------|----------------|

T |----------------|----------------|--------oooo----|----------------|

S |----o-------o---|--------o-------|------------o---|----------------|

B |o-o---o-o-------|o---o-------o---|o-----------o---|----------------|

|1 + 2 + 3 + 4 + |1 + 2 + |1 + 2 + |1 + 2 + 3 + 4 + |

1:45

|-------5x-------|

C |----------------|--------X-------|X-----------X---|

R |x-x-x-x-x-x-x-x-|x---x-----------|----------------|

H |----------------|----------------|----x-----------|

S |-g--o-------o---|--------o-ooo---|----o-ooOoooO---|

B |o-o---o-o-------|o---o-o---------|o---------------|

|1 + 2 + 3 + 4 + |1 + 2 + |1 + 2 + |

 

Chorus 2 - 2:03

|---------------------Repeat Once------------------|

|-------2x-------|

C |x-x-x-x-x-x-x---|x-x-x-x-x-x-x---|x-x-x---X-X---X-|

H |-------------X--|-------------X--|----------------|

t |----------------|----------------|------------33--|

S |----o--o--o-o---|----o-------o---|----o-2---o---o-|

B |o--o----oo---o--|o--o--o-o--o-o-o|o--o---oo-----o-|

 

Interlude - 2:26

R |C-x-x-x-x-x-x-x-|x-x-x-x-x-x-x---|--x-x-x-x-x-x-x-|x-x-x-x-x-x-x---|

H |----------------|--------------X-|----------------|--------------x-|

S |-g--o--d----o---|-g--o--d----o---|oo--o-------o---|----o-------o---|

B |o-o---o-o-------|o-o---o-o-------|------o-o-------|o-o---o-o-------|

2:38

C |----------------|--------X-------|

R |--x-x-x-x-x-x-x-|--x-x-x-----xx--|

S |oo--o-------o--o|o---o-----2---o-|

B |o-o---o-o-------|--o---o-o-------|

 

Chorus 3 - 2:43

|-------2x-------|

C |x-x-x-x-x-x-x-x-|x-x-x-x-x-x-x-x-|X---x---x-------|X---------------|

H |----------------|----------------|----------------|----X-----------|

t |----------------|----------------|----------------|----------oooooo|

S |----o--o--o---o-|----o-------o---|--------o--oo---|----o-oooo------|

B |o--o----oo--oo--|o--o--o-o-oo-o-o|o-----o---------|o---------------|

|1 + 2 + 3 + 4 + |1 + 2 + 3 + 4 + |1 + 2 + |1 + 2 + |

2:55

|---------------------Repeat Once------------------|

|-------2x-------|

C |x-x-x-x-x-x-x---|x-x-x-x-x-x-x---|x-x-x---X-X---X-|

H |-------------X--|-------------X--|----------------|

t |----------------|----------------|------------33--|

S |----o--o--o-o---|----o-------o---|----o-2---o---o-|

B |o--o----oo---o--|o--o--o-o--o-o-o|o--o---oo-----o-|

 

H |x----

F |ooooo

B |o---o

 

 

Return to my Hoobastank drum tabs page

The Tablature is Copyright its respective owners.

Sign Up For My Newsletter
Subscribe | Unsubscribe

Site Map | Disclaimer | Privacy Policy | Media Kit | Submissions/Corrections

Website © 2000-2014 mattsmusicpage.com. All rights reserved.

Legal & DMCA: Matt's Music Page has been providing lyrics and tabs in a legal way, paying royalties each year to a few organizations. Then, all lyrics and tabs were removed from the site. Now, there's a new owner to the site, which purchased it August 26, 2014, and he is in negotiation to obtain licensing from BMI at the moment. If you have a specific DMCA request -- please do not hesitate to contact me via the contact button on top. I will do my very best to keep this site fully legal.

Get our toolbar!