Your One-Stop Source For
Music Lyrics
Bass and Guitar Tabs
and More...
Music Lyrics Bass and Guitar Tabs

 

The Tabs Are Below

Learn To Read Tab
Chords Handbook
Corrections & Additions
Get Official Tab
Hoobastank tabs @ 911Tabs

This song is off Hoobastanks old cd They Sure Don?t

Make Basketball Shorts Like They Used Too. Its more

ska than there new one. This is one of the best songs

off that cd so I thought I would tab it because no

one else has. This is my first tab. Im pretty sure

most of this is right but if you have corrections

email them to me at hoobavent06@hotmail.com thanks

 

This Song is played in Drop D

 

 

h - hammer on

p - pull off

b - bend string up

/ - Slide up

\ - slide down

~ - Vibrato

x - muted, struck string

 

These are all ska chords so play most of them upstrokes

(Just Guitar)

---8--8--8?88--xx---4?xxx--3--3--3--33--xx--4?xxx-------------

---8--8--8?88--xx---4?xxx--3--3--3--33--xx--4?xxx-------------

---8--8--8?88--xx---4?xxx--3--3--3--33--xx--4?xxx-------------

--------------------------------------------------------------

--------------------------------------------------------------

--------------------------------------------------------------

 

----1--1--1--11--xx--4--xxx---3--3--3--33?xx?6?xxx------------

----1--1--1--11--xx--4--xxx---3--3--3--33?xx?6?xxx------------

----1--1--1--11--xx--4--xxx---3--3--3--33?xx?6?xxx------------

---------------------4----------------------------------------

--------------------------------------------------------------

--------------------------------------------------------------

 

(Everyone else comes in) ( 0:09)

---8--8--8?88--xx---4?xxx--3--3--3--33--xx--4?xxx-------------

---8--8--8?88--xx---4?xxx--3--3--3--33--xx--4?xxx-------------

---8--8--8?88--xx---4?xxx--3--3--3--33--xx--4?xxx-------------

--------------------------------------------------------------

--------------------------------------------------------------

--------------------------------------------------------------

 

----1--1--1--11--xx--4--xxx---3--3--3--33?xx?6?xxx*-----------

----1--1--1--11--xx--4--xxx---3--3--3--33?xx?6?xxx*-----------

----1--1--1--11--xx--4--xxx---3--3--3--33?xx?6?xxx*-----------

---------------------4----------------------------------------

--------------------------------------------------------------

--------------------------------------------------------------

 

---8--8--8?88--xx---4?xxx--3--3--3--33--xx--4?xxx-------------

---8--8--8?88--xx---4?xxx--3--3--3--33--xx--4?xxx-------------

---8--8--8?88--xx---4?xxx--3--3--3--33--xx--4?xxx-------------

--------------------------------------------------------------

--------------------------------------------------------------

--------------------------------------------------------------

 

----1--1--1--11--xx--4--xxx---3--3--3--33?xx?6?xxx------------

----1--1--1--11--xx--4--xxx---3--3--3--33?xx?6?xxx------------

----1--1--1--11--xx--4--xxx---3--3--3--33?xx?6?xxx------------

---------------------4----------------------------------------

--------------------------------------------------------------

--------------------------------------------------------------

 

(0:27)

---8888?10-10-10-10?11\----------------------------------------

---8888?10-10-10-10?11\----------------------------------------

---8888?10-10-10-10?11\----------------------------------------

---------------------------------------------------------------

---------------------------------------------------------------

---------------------------------------------------------------

 

Verse (0:30)

----8--8--8----8--8--8----8--8--8----8--8--8-------------------

----8--8--8----8--8--8----8--8--8----8--8--8-------------------

----8--8--8----8--8--8----8--8--8----8--8--8-------------------

---------------------------------------------------------------

---------------------------------------------------------------

---------------------------------------------------------------

 

----1--1?1----1--1?1-----1--1?1----1--1?1----------------------

----1--1?1----1--1?1-----1--1?1----1--1?1----------------------

----1--1?1----1--1?1-----1--1?1----1--1?1----------------------

---------------------------------------------------------------

---------------------------------------------------------------

---------------------------------------------------------------

 

----6?6?6----6?6?6----5?5?5----5?5?5---------------------------

----6?6?6----6?6?6----5?5?5----5?5?5---------------------------

----6?6?6----6?6?6----5?5?5----5?5?5---------------------------

---------------------------------------------------------------

---------------------------------------------------------------

---------------------------------------------------------------

 

----8--8--8----8--8--8----8--8--8---11-11-11-11-11-11----------

----8--8--8----8--8--8----8--8--8---11-11-11-11-11-11----------

----8--8--8----8--8--8----8--8--8---11-11-11-11-11-11----------

---------------------------------------------------------------

---------------------------------------------------------------

---------------------------------------------------------------

 

----8--8--8----8--8--8----8--8--8----8--8--8-------------------

----8--8--8----8--8--8----8--8--8----8--8--8-------------------

----8--8--8----8--8--8----8--8--8----8--8--8-------------------

---------------------------------------------------------------

---------------------------------------------------------------

---------------------------------------------------------------

 

----1--1?1----1--1?1-----1--1?1----1--1?1----------------------

----1--1?1----1--1?1-----1--1?1----1--1?1----------------------

----1--1?1----1--1?1-----1--1?1----1--1?1----------------------

---------------------------------------------------------------

---------------------------------------------------------------

---------------------------------------------------------------

 

----6?6?6----6?6?6----5?5?5----5?5?5---------------------------

----6?6?6----6?6?6----5?5?5----5?5?5---------------------------

----6?6?6----6?6?6----5?5?5----5?5?5---------------------------

---------------------------------------------------------------

---------------------------------------------------------------

---------------------------------------------------------------

 

----8--8--8----8--8--8----8--8--8------------------------------

----8--8--8----8--8--8----8--8--8------------------------------

----8--8--8----8--8--8----8--8--8------------------------------

---------------------------------------------------------------

---------------------------------------------------------------

---------------------------------------------------------------

 

(Chorus) (1:01)

---8--8--8?88--xx---4?xxx--3--3--3--33--xx--4?xxx--------------

---8--8--8?88--xx---4?xxx--3--3--3--33--xx--4?xxx--------------

---8--8--8?88--xx---4?xxx--3--3--3--33--xx--4?xxx--------------

---------------------------------------------------------------

---------------------------------------------------------------

---------------------------------------------------------------

 

----1--1--1--11--xx--4--xxx---3--3--3--33?xx?6?xxx-------------

----1--1--1--11--xx--4--xxx---3--3--3--33?xx?6?xxx-------------

----1--1--1--11--xx--4--xxx---3--3--3--33?xx?6?xxx-------------

---------------------4-----------------------------------------

---------------------------------------------------------------

---------------------------------------------------------------

 

---8--8--8?88--xx---4?xxx--3--3--3--33--xx--4?xxx--------------

---8--8--8?88--xx---4?xxx--3--3--3--33--xx--4?xxx--------------

---8--8--8?88--xx---4?xxx--3--3--3--33--xx--4?xxx--------------

---------------------------------------------------------------

---------------------------------------------------------------

---------------------------------------------------------------

 

----1--1--1--11--xx--4--xxx---3--3--3--33?xx?6?xxx-------------

----1--1--1--11--xx--4--xxx---3--3--3--33?xx?6?xxx-------------

----1--1--1--11--xx--4--xxx---3--3--3--33?xx?6?xxx-------------

---------------------4-----------------------------------------

---------------------------------------------------------------

---------------------------------------------------------------

 

(1:19)

---8888?10-10-10-10?11\----------------------------------------

---8888?10-10-10-10?11\----------------------------------------

---8888?10-10-10-10?11\----------------------------------------

---------------------------------------------------------------

---------------------------------------------------------------

---------------------------------------------------------------

 

(1:21)

----8--8--8----8--8--8----8--8--8----8--8--8-------------------

----8--8--8----8--8--8----8--8--8----8--8--8-------------------

----8--8--8----8--8--8----8--8--8----8--8--8-------------------

---------------------------------------------------------------

---------------------------------------------------------------

---------------------------------------------------------------

 

----1--1?1----1--1?1-----1--1?1----1--1?1----------------------

----1--1?1----1--1?1-----1--1?1----1--1?1----------------------

----1--1?1----1--1?1-----1--1?1----1--1?1----------------------

---------------------------------------------------------------

---------------------------------------------------------------

---------------------------------------------------------------

 

----6?6?6----6?6?6----5?5?5----5?5?5---------------------------

----6?6?6----6?6?6----5?5?5----5?5?5---------------------------

----6?6?6----6?6?6----5?5?5----5?5?5---------------------------

---------------------------------------------------------------

---------------------------------------------------------------

---------------------------------------------------------------

 

----8--8--8----8--8--8----8--8--8---11-11-11-11-11-11----------

----8--8--8----8--8--8----8--8--8---11-11-11-11-11-11----------

----8--8--8----8--8--8----8--8--8---11-11-11-11-11-11----------

---------------------------------------------------------------

---------------------------------------------------------------

---------------------------------------------------------------

 

----8--8--8----8--8--8----8--8--8----8--8--8-------------------

----8--8--8----8--8--8----8--8--8----8--8--8-------------------

----8--8--8----8--8--8----8--8--8----8--8--8-------------------

---------------------------------------------------------------

---------------------------------------------------------------

---------------------------------------------------------------

 

----1--1?1----1--1?1-----1--1?1----1--1?1----------------------

----1--1?1----1--1?1-----1--1?1----1--1?1----------------------

----1--1?1----1--1?1-----1--1?1----1--1?1----------------------

---------------------------------------------------------------

---------------------------------------------------------------

---------------------------------------------------------------

 

----6?6?6----6?6?6----5?5?5----5?5?5---------------------------

----6?6?6----6?6?6----5?5?5----5?5?5---------------------------

----6?6?6----6?6?6----5?5?5----5?5?5---------------------------

---------------------------------------------------------------

---------------------------------------------------------------

---------------------------------------------------------------

 

----8--8--8----8--8--8----8--8--8------------------------------

----8--8--8----8--8--8----8--8--8------------------------------

----8--8--8----8--8--8----8--8--8------------------------------

---------------------------------------------------------------

---------------------------------------------------------------

---------------------------------------------------------------

 

Chorus(1:53)

---8--8--8?88--xx---4?xxx--3--3--3--33--xx--4?xxx--------------

---8--8--8?88--xx---4?xxx--3--3--3--33--xx--4?xxx--------------

---8--8--8?88--xx---4?xxx--3--3--3--33--xx--4?xxx--------------

---------------------------------------------------------------

---------------------------------------------------------------

---------------------------------------------------------------

 

----1--1--1--11--xx--4--xxx---3--3--3--33?xx?6?xxx-------------

----1--1--1--11--xx--4--xxx---3--3--3--33?xx?6?xxx-------------

----1--1--1--11--xx--4--xxx---3--3--3--33?xx?6?xxx-------------

---------------------4-----------------------------------------

---------------------------------------------------------------

---------------------------------------------------------------

 

---8--8--8?88--xx---4?xxx--3--3--3--33--xx--4?xxx--------------

---8--8--8?88--xx---4?xxx--3--3--3--33--xx--4?xxx--------------

---8--8--8?88--xx---4?xxx--3--3--3--33--xx--4?xxx--------------

---------------------------------------------------------------

---------------------------------------------------------------

---------------------------------------------------------------

 

----1--1--1--11--xx--4--xxx---3--3--3--33?xx?6?xxx-------------

----1--1--1--11--xx--4--xxx---3--3--3--33?xx?6?xxx-------------

----1--1--1--11--xx--4--xxx---3--3--3--33?xx?6?xxx-------------

---------------------4-----------------------------------------

---------------------------------------------------------------

---------------------------------------------------------------

 

Bridge 1(2:11)

----8--8--10--10--11?11?7--7--1--1--3--3--4--4--0--0-----------

----8--8--10--10--11?11?7--7--1--1--3--3--4--4--0--0-----------

----8--8--10--10--11?11?7--7--1--1--3--3--4--4--0--0-----------

---------------------------------------------------------------

---------------------------------------------------------------

---------------------------------------------------------------

 

----8--8--10--10--11?11?7--7--1--1--3--3--4--4--0--0-----------

----8--8--10--10--11?11?7--7--1--1--3--3--4--4--0--0-----------

----8--8--10--10--11?11?7--7--1--1--3--3--4--4--0--0-----------

---------------------------------------------------------------

---------------------------------------------------------------

---------------------------------------------------------------

 

----8--8--10--10--11?11?7--7--1--1--3--3--4--4--0--0-----------

----8--8--10--10--11?11?7--7--1--1--3--3--4--4--0--0-----------

----8--8--10--10--11?11?7--7--1--1--3--3--4--4--0--0-----------

---------------------------------------------------------------

---------------------------------------------------------------

---------------------------------------------------------------

 

----8--8--10--10--11?11?7--7--1--1--3--3--4--4--0--0-----------

----8--8--10--10--11?11?7--7--1--1--3--3--4--4--0--0-----------

----8--8--10--10--11?11?7--7--1--1--3--3--4--4--0--0-----------

---------------------------------------------------------------

---------------------------------------------------------------

---------------------------------------------------------------

 

Bridge 2(2:29)

---------------------------------------------------------------

---------------------------------------------------------------

---------------------------------------------------------------

----10--10--12--12--13--13--9--9--3--3--5--5--6--6--2--2-------

----10--10--12--12--13--13--9--9--3--3--5--5--6--6--2--2-------

----10--10--12--12--13--13--9--9--3--3--5--5--6--6--2--2-------

 

---------------------------------------------------------------

---------------------------------------------------------------

---------------------------------------------------------------

----10--10--12--12--13--13--9--9--3--3--5--5--6--6--2--2-------

----10--10--12--12--13--13--9--9--3--3--5--5--6--6--2--2-------

----10--10--12--12--13--13--9--9--3--3--5--5--6--6--2--2-------

 

---------------------------------------------------------------

---------------------------------------------------------------

---------------------------------------------------------------

----10--10--12--12--13--13--9--9--3--3--5--5--6--6--2--2-------

----10--10--12--12--13--13--9--9--3--3--5--5--6--6--2--2-------

----10--10--12--12--13--13--9--9--3--3--5--5--6--6--2--2-------

 

---------------------------------------------------------------

---------------------------------------------------------------

---------------------------------------------------------------

----10--10--12--12--13--13--9--9--3--3--5--5--6--6--2--2-------

----10--10--12--12--13--13--9--9--3--3--5--5--6--6--2--2-------

----10--10--12--12--13--13--9--9--3--3--5--5--6--6--2--2-------

 

Just Guitar(2:48)

---8--8--8?88--xx---4?xxx--3--3--3--33--xx--4?xxx--------------

---8--8--8?88--xx---4?xxx--3--3--3--33--xx--4?xxx--------------

---8--8--8?88--xx---4?xxx--3--3--3--33--xx--4?xxx--------------

---------------------------------------------------------------

---------------------------------------------------------------

---------------------------------------------------------------

 

----1--1--1--11--xx--4--xxx---3--3--3--33?xx?6?xxx-------------

----1--1--1--11--xx--4--xxx---3--3--3--33?xx?6?xxx-------------

----1--1--1--11--xx--4--xxx---3--3--3--33?xx?6?xxx-------------

---------------------4-----------------------------------------

---------------------------------------------------------------

---------------------------------------------------------------

 

(Everyone else comes in)(2:57)

---8--8--8?88--xx---4?xxx--3--3--3--33--xx--4?xxx--------------

---8--8--8?88--xx---4?xxx--3--3--3--33--xx--4?xxx--------------

---8--8--8?88--xx---4?xxx--3--3--3--33--xx--4?xxx--------------

---------------------------------------------------------------

---------------------------------------------------------------

---------------------------------------------------------------

 

----1--1--1--11--xx--4--xxx---3--3--3--33?xx?6?xxx-------------

----1--1--1--11--xx--4--xxx---3--3--3--33?xx?6?xxx-------------

----1--1--1--11--xx--4--xxx---3--3--3--33?xx?6?xxx-------------

---------------------4-----------------------------------------

---------------------------------------------------------------

---------------------------------------------------------------

 

---8--8--8?88--xx---4?xxx--3--3--3--33--xx--4?xxx--------------

---8--8--8?88--xx---4?xxx--3--3--3--33--xx--4?xxx--------------

---8--8--8?88--xx---4?xxx--3--3--3--33--xx--4?xxx--------------

---------------------------------------------------------------

---------------------------------------------------------------

---------------------------------------------------------------

 

----1--1--1--11--xx--4--xxx---3--3--3--33?xx?6?xxx-------------

----1--1--1--11--xx--4--xxx---3--3--3--33?xx?6?xxx-------------

----1--1--1--11--xx--4--xxx---3--3--3--33?xx?6?xxx-------------

---------------------4-----------------------------------------

---------------------------------------------------------------

---------------------------------------------------------------

 

---8--8--8?88--xx---4?xxx--3--3--3--33--xx--4?xxx--------------

---8--8--8?88--xx---4?xxx--3--3--3--33--xx--4?xxx--------------

---8--8--8?88--xx---4?xxx--3--3--3--33--xx--4?xxx--------------

---------------------------------------------------------------

---------------------------------------------------------------

---------------------------------------------------------------

 

----1--1--1--11--xx--4--xxx---3--3--3--33?xx?6?xxx-------------

----1--1--1--11--xx--4--xxx---3--3--3--33?xx?6?xxx-------------

----1--1--1--11--xx--4--xxx---3--3--3--33?xx?6?xxx-------------

---------------------4-----------------------------------------

---------------------------------------------------------------

---------------------------------------------------------------

 

---8--8--8?88--xx---4?xxx--3--3--3--33--xx--4?xxx--------------

---8--8--8?88--xx---4?xxx--3--3--3--33--xx--4?xxx--------------

---8--8--8?88--xx---4?xxx--3--3--3--33--xx--4?xxx--------------

---------------------------------------------------------------

---------------------------------------------------------------

---------------------------------------------------------------

 

----1--1--1--11--xx--4--xxx---3--3--3--33?xx?6?xxx-------------

----1--1--1--11--xx--4--xxx---3--3--3--33?xx?6?xxx-------------

----1--1--1--11--xx--4--xxx---3--3--3--33?xx?6?xxx-------------

---------------------4-----------------------------------------

---------------------------------------------------------------

---------------------------------------------------------------

 

 

---8888?10-10-10-10?11\----------------------------------------

---8888?10-10-10-10?11\----------------------------------------

---8888?10-10-10-10?11\----------------------------------------

---------------------------------------------------------------

---------------------------------------------------------------

---------------------------------------------------------------

 

Instead of fading out at the end of the song you play the end of

the intro then end the song.

 

RATE THIS TAB!!!

 

 

 

Return to my Hoobastank tabs page

The Tablature is Copyright its respective owners.

Sign Up For My Newsletter
Subscribe | Unsubscribe

Site Map | Disclaimer | Privacy Policy | Media Kit | Submissions/Corrections

Website © 2000-2014 mattsmusicpage.com. All rights reserved.

Legal & DMCA: Matt's Music Page has been providing lyrics and tabs in a legal way, paying royalties each year to a few organizations. Then, all lyrics and tabs were removed from the site. Now, there's a new owner to the site, which purchased it August 26, 2014, and he is in negotiation to obtain licensing from BMI at the moment. If you have a specific DMCA request -- please do not hesitate to contact me via the contact button on top. I will do my very best to keep this site fully legal.

Get our toolbar!