Your One-Stop Source For
Music Lyrics
Bass and Guitar Tabs
and More...
Music Lyrics Bass and Guitar Tabs

 

The Tabs Are Below

Learn To Read Tab
Chords Handbook
Corrections & Additions
Get Official Tab
Hoobastank tabs @ 911Tabs

Hoobastank/Hoobastank/To Be with You

 

Tabbed by:Dave C.

 

Ok. Playin this song, isn't the hard part, Gettin the right timing is. It's

almost like he plays notes randomly, but there really is a pattern to it.

Just listen to the song, for the timing, and there shouldnt be a problem.

Enjoy! :)

 

(#)=strike how ever many times is in the ()

~=Ring

 

0:04 Intro

G|------|------|------|------|------|------|------|------|------|

D|------|------|------|------|------|------|------|------|------|

A|10-9--|------|------|------|10-9--|------|--7~~~|------|------|

E|-----9|0~~~~~|~~~~~~|~~~~~~|-----9|0~~~~~|7-----|0~~~~~|~~~~~~|

Note:Bass comes in after 3 measures of drums

 

0:17 Verse 1.1

G|---------------|--------------|

D|---------------|--------------|

A|---------------|0-0-0--0-0-0-0|2x

E|0-0-0-0-0-0-0-2|------2-------|

 

0:28 Verse 1.2

G|---------------|---------|---------------|---------------|---------------|

D|---------------|----3----|---------------|---------------|---------------|

A|0-0-0-0-0-0-0--|--0---3--|---------------|---------------|---------------|

E|--------------0|3~------4|3-3-3-3-0-0-0-2|0-0-0-0-0-0-0-0|0-0-0-0-0-0-0-0|

 

0:43 Verse 1.1 2x

 

0:54 Verse 1.2 1x

 

1:09 Chorus

G|---------------|-----------------|--------------|---------------|

D|---------------|---------55-33-00|--------------|---------------|

A|0-0-0-0-2-2-2-2|5-5-5------------|0-0-0-0-2-2-2-|---------------|

E|---------------|-----3-6---------|-------------0|0-0-0-0-0-0-0-3|

 

G|---------------|-----------------|---------------|-------|

D|---------------|---------55-33-00|---------------|-------|

A|0-0-0-0-2-2-2-2|5-5-5------------|3-3-3-3-----3-3|-------|

E|---------------|-----3-6---------|---------------|0(15)-3|

 

1:35 Verse 2.1

G|---------------|--------------|

D|---------------|--------------|

A|---------------|0-0-0--0-0-0-0|2x

E|0-0-0-0-0-0-0-2|------2-------|

 

1:47 Verse 2.2

G|---------------|---------|---------------|---------------|---------------|

D|---------------|----3----|---------------|---------------|---------------|

A|0-0-0-0-0-0-0--|--0---3--|---------------|---------------|------------2-2|

E|--------------0|3~------4|3-3-3-3-0-0-0-2|0-0-0-0-0-0-0-0|0-0-2-2-3-3----|

 

2:01 Chorus 1x

 

2:27 Bridge

G|---------------|-----------|---------------|-----------|

D|---------------|----6-6-6--|---------------|----6-6-6-6|

A|4-4-4-4-4-4-4--|--4-------0|4-4-4-4-4-4-4--|--4--------|

E|--------------0|4----------|--------------0|4----------|

 

G|---------------|---------------|---------------|----|---------------|

D|---------------|---------------|---------------|----|------------2-2|

A|5-0-5~~~~~~~~~0|3-0---------0--|---------------|----|----0-0-4-4----|

E|---------------|----0~~~~~~~--0|0-0-0-0-2-2-2-0|4(8)|4-4------------|

 

2:53 Chorus 2x

 

3:33 Outro | 2x |End On

G|---------------|---------------|---------------|---------------|------|

D|---------------|---------------|---------------|---------------|------|

A|------4-4-4-4--|------3-3-3-3--|---------------|---------------|------|

E|5---4---------4|3---2---------2|0-0-0-0-0-0-0-0|0-0-0-0-3-2----|3-0~~~|

 

 

Return to my Hoobastank bass tabs page

The Tablature is Copyright its respective owners.

Sign Up For My Newsletter
Subscribe | Unsubscribe

Site Map | Disclaimer | Privacy Policy | Media Kit | Submissions/Corrections

Website © 2000-2014 mattsmusicpage.com. All rights reserved.

Legal & DMCA: Matt's Music Page has been providing lyrics and tabs in a legal way, paying royalties each year to a few organizations. Then, all lyrics and tabs were removed from the site. Now, there's a new owner to the site, which purchased it August 26, 2014, and he is in negotiation to obtain licensing from BMI at the moment. If you have a specific DMCA request -- please do not hesitate to contact me via the contact button on top. I will do my very best to keep this site fully legal.

Get our toolbar!