Your One-Stop Source For
Music Lyrics
Bass and Guitar Tabs
and More...
Music Lyrics Bass and Guitar Tabs

 

The Tabs Are Below

Learn To Read Tab
Chords Handbook
Corrections & Additions
Get Official Tab
Hoobastank tabs @ 911Tabs

Hoobastank

Runaway

 

Transcribed By: Ryan Huntsman (IbanezBassMX)

Email: Ryan82184@aol.com

 

5-string

Standard tunning

 

(0:21)

G--------------------------------------------------------

D--------------------------------------------------------

A--------------7----------------------------7--------7/--

E-5-----5----5-------5----5----5-----5----5------5~------

B--------------------------------------------------------

 

G----------------------------------------------------------------------

D------------------------------------3---------------------------------

A-------------------------------------------3--------------7-----------

E-3----3-3-3-3----3-3-3---1----1---1----1~------5----5---5------5---5--

B----------------------------------------------------------------------

 

G---------------------------------------------------------

D---------------------------------------------------------

A--------------7---------7/-------------------------------

E-5-----5----5------5~---------3----3-3----3-3----0~---3--

B---------------------------------------------------------

 

G--------------------------

D--------------------------

A--------------------------

E-1-1-1-1-0-0-1-1-1-1-1-1--

B--------------------------

 

Chorus (0:36, 1:25)

G----------------------------------------------

D----------------------------------------------

A-0----0---0-2----2---2--3----3---3------------

E----------------------------------------------

B-----------------------------------3---3~--3--

 

G--------------------------------------------------------------------

D--------------------------------------------------------------------

A----------------------3----3---3------------------------------------

E-1----1---1-1----1---------------3----3---3--5----5---5-------------

B--------------------------------------------------------5----5---5--

 

G-----------------------------------------------------------------------

D-----------------------------------------------------------------------

A------------------------------------------------3----3---3-------------

E-------------------------1----1---1-1----1---1-------------3----3---3--

B-1-----1---1-3---3~-3--------------------------------------------------

 

(0:50)

G----------

D--r----r--

A--e----e--

E--s----s--

B--t----t--

 

2nd Verse (0:54)

G---------------------------------------------

D---------------------------------------------

A------------7---------------------7------7/--

E-5----5---5------5-----5----5---5----5~------

B---------------------------------------------

 

G----------------------------------------------

D------------------------------------3---------

A----------------------------------------------

E-3----3---3-3---0~-3----1----1----1----1~--3--

B----------------------------------------------

 

G---------------------------------------------

D---------------------------------------------

A------------7---------------------7------7/-- -

E-5----5---5------5-----5----5---5----5~------ |

B--------------------------------------------- |

| X3

G---------------------------------------------- |

D------------------------------------3--------- -

A----------------------------------------------

E-3----3---3-3---0~-3----1----1----1----1~--3--

B----------------------------------------------

 

Bridge (1:37)

G-----------------------------------

D----------------r---7---7~---------

A----------------e-----------5---7--

E-5-5---5---3-5--s------------------

B----------------t------------------

 

G------12~-----11---9~--------------------------------------

D-7\9------9-----------12/--------------------r----------7--

A---------------------------------------------e------7~-----

E----------------------------5-5----5---3--5--s--5----------

B---------------------------------------------t-------------

 

G-----------------5~------------------------------------------

D-------------3------3---5------------------------------------

A-0~~~~----------------------3~-5---0~~~~---------------------

E-------------------------------------------1---1~-1---3---3--

B-------------------------------------------------------------

 

Pre-Chorus (2:06)

G---------------------------------------------

D---------------------------------------------

A---------------------------------------------

E-5-5---5----3-5-------5-5---5----3-5--5~--3--

B---------------------------------------------

 

G-------------------------------------------------------------

D-------------------------------------------------------------

A-------------------------------------------------------------

E-----------------------------------------3---5-5---5------5--

B-5-5---5---3-5-------5-5---5---3-5---5~----------------5-----

 

G----------------------------------------------------------------------

D----------------------------------------------------------------------

A----------------7~-----------------------------------3----------------

E-5-5---5-----5-----5-------------------------1----1~---1-3---3-3-3-3--

B-----------3------------3---3---3-3--3~-3-----------------------------

 

Outro-Chorus (2:20)

G-----------------------------------------------------------------------

D-----------------------------------------------------------------------

A-0----0---0-2----2---2---3----3---3------------------------------------

E------------------------------------------------1----1---1-1----1---1--

B------------------------------------3---3~-3---------------------------

 

G----------------------------------------------------------------------

D----------------------------------------------------------------------

A-3----3---3-----------------------------------------------------------

E------------3----3---3---5----5---5-----------------------------------

B------------------------------------5----3---3---1----1---1-3---3~-3--

 

G------------------------------------------------------

D------------------------------------------------------

A------------------------------------------------------

E-1---1--1-1---1--1-----------3---3--3------------3~~--

B--------------------1---1--1------------1--1~-1-------

 

Thats it, this is a cool song to play once you've learned all the song.

This song is 100% correct.

Please rate this tab, Thanks.

 

 

Return to my Hoobastank bass tabs page

The Tablature is Copyright its respective owners.

Sign Up For My Newsletter
Subscribe | Unsubscribe

Site Map | Disclaimer | Privacy Policy | Media Kit | Submissions/Corrections

Website © 2000-2014 mattsmusicpage.com. All rights reserved.

Legal & DMCA: Matt's Music Page has been providing lyrics and tabs in a legal way, paying royalties each year to a few organizations. Then, all lyrics and tabs were removed from the site. Now, there's a new owner to the site, which purchased it August 26, 2014, and he is in negotiation to obtain licensing from BMI at the moment. If you have a specific DMCA request -- please do not hesitate to contact me via the contact button on top. I will do my very best to keep this site fully legal.

Get our toolbar!