Your One-Stop Source For
Music Lyrics
Bass and Guitar Tabs
and More...
Music Lyrics Bass and Guitar Tabs

 

The Tabs Are Below

Learn To Read Tab
Chords Handbook
Corrections & Additions
Get Official Tab
Hoobastank tabs @ 911Tabs

Hoobastank - Right Before Your Eyes

Submitted By: hoobastank_182__

EMail: no_parking182@hotmail.com

 

 

Standard Tuning: E A D G

 

Verse:

G|-----------------------------------------|

D|-----------------------------------------|

A|----------------------4---4-4------------|

E|--4---4-4---4---4-4-------------2---2-2--|

 

Chorus:

G|-----------------------------------------|

D|------6-4---4-6---4-4p3-3---4------------|

A|----------6-----4--------------4---------|

E|--4--------------------------------------|

 

Bridge:

G|-----------------------------------------|

D|-----------------------------------------|

A|---------1-1111-2-2222-4-4444------------|

E|--4-4444---------------------------------|

 

 

Return to my Hoobastank bass tabs page

The Tablature is Copyright its respective owners.

Sign Up For My Newsletter
Subscribe | Unsubscribe

Site Map | Disclaimer | Privacy Policy | Media Kit | Submissions/Corrections

Website © 2000-2014 mattsmusicpage.com. All rights reserved.

Legal & DMCA: Matt's Music Page has been providing lyrics and tabs in a legal way, paying royalties each year to a few organizations. Then, all lyrics and tabs were removed from the site. Now, there's a new owner to the site, which purchased it August 26, 2014, and he is in negotiation to obtain licensing from BMI at the moment. If you have a specific DMCA request -- please do not hesitate to contact me via the contact button on top. I will do my very best to keep this site fully legal.

Get our toolbar!