Your One-Stop Source For
Music Lyrics
Bass and Guitar Tabs
and More...
Music Lyrics Bass and Guitar Tabs

 

The Tabs Are Below

Learn To Read Tab
Chords Handbook
Corrections & Additions
Get Official Tab
Hoobastank tabs @ 911Tabs

Ready For You / Hoobastank

Album: Hoobastank

 

Intro/Fill (repeat this)

G--------

D--------

A-2-2/14-

E--------

 

Verse 1

G---------------------------------------------------------------------

D------------------------------------------------------------22222222-

A---------------------------------------------------------------------

E-7777777777777777-5555555555555555-3333333333333333-00000000---------

 

G-----------------------------------------------------------------

D-----------------------------------------------------------------

A-----------------------------------------------------------------

E-7777777777777777-5555555555555555-0000000000000000-3331h3-3h555-

 

Chorus

G--------------------------------------------------

D-----9-----------9-7------------------------------

A---9---9-------7~------5h7-7-5h7-7----------------

E-7-----------5---------------------33-0h5-5-5-3h5-

 

Verse 2

G---------------------------------------------------------------------

D------------------------------------------------------------22222222-

A---------------------------------------------------------------------

E-7777777777777777-5555555555555555-3333333333333333-00000000---------

 

G-------------------------------------------------------------------

D-------------------------------------------------------------------

A-------------------------------------------------------------------

E-7777777777777777-5555555555555555-0000000000000000-3331h33-1/3-55-

 

Last Chorus

G----------------------------------------------------------------------------------

D-----9-----------9-7--------------------------------------------------------------

A---9---9-------7/9-----5h7-7-5h7-7------------------------------------------------

E-7-----------5---------------------33-0h5-5-5-3h5-33-0h5-5-5-3h5-33-0h5-5-5-3h5/7-

 

 

Return to my Hoobastank bass tabs page

The Tablature is Copyright its respective owners.

Sign Up For My Newsletter
Subscribe | Unsubscribe

Site Map | Disclaimer | Privacy Policy | Media Kit | Submissions/Corrections

Website © 2000-2014 mattsmusicpage.com. All rights reserved.

Legal & DMCA: Matt's Music Page has been providing lyrics and tabs in a legal way, paying royalties each year to a few organizations. Then, all lyrics and tabs were removed from the site. Now, there's a new owner to the site, which purchased it August 26, 2014, and he is in negotiation to obtain licensing from BMI at the moment. If you have a specific DMCA request -- please do not hesitate to contact me via the contact button on top. I will do my very best to keep this site fully legal.

Get our toolbar!