Your One-Stop Source For
Music Lyrics
Bass and Guitar Tabs
and More...
Music Lyrics Bass and Guitar Tabs

 

The Tabs Are Below

Learn To Read Tab
Chords Handbook
Corrections & Additions
Get Official Tab
Hoobastank tabs @ 911Tabs

Artist: Hoobastank

Song: Out of Control

Album: The Reason

Tuning 4-string: E A D G: Standard

 

Intro

G |-------------------------|

D |-------------------------|

A |-----------7-7-7---------|

E |-000000-0-0-0-0---5-5-5--|

 

Pre Chorus

G ----------------------------------------|

D ----------------------------------------|

A ---------------333----------------------|

E -0-0-2320-2320-----0-023200-023200-111--|

 

Chorus

G ----------------------------------------|

D ----------------------------------------|

A ----77-7-33-55-5---------------222333555|

E -00-------------------33333333----------|

 

G ------------------------------------------|

D ------------55-5--------------------------|

A ----77-7-33-------------------------454-00|

E 00---------------------22222222-555-------|

 

Bridge I

G ----------------|

D ----------------|

A ----------------|

E 0-0-0-0-0-0-0-0-|

 

Verse

G ------------------------|

D ------------------------|

A ----------7-7-7---------|

E -000000000-0-0--050505--|

 

 

Bridge II

G ---------------------|

D ---------------------|

A -----3-3------2-222--|

E -0-0-----3-3---------|

 

You can figure out the order. Please rate this tab its my first one.

And look out for my band Forsaken Vision. Its a local Las Vegas band.

Thanks.

 

 

 

Return to my Hoobastank bass tabs page

The Tablature is Copyright its respective owners.

Sign Up For My Newsletter
Subscribe | Unsubscribe

Site Map | Disclaimer | Privacy Policy | Media Kit | Submissions/Corrections

Website © 2000-2014 mattsmusicpage.com. All rights reserved.

Legal & DMCA: Matt's Music Page has been providing lyrics and tabs in a legal way, paying royalties each year to a few organizations. Then, all lyrics and tabs were removed from the site. Now, there's a new owner to the site, which purchased it August 26, 2014, and he is in negotiation to obtain licensing from BMI at the moment. If you have a specific DMCA request -- please do not hesitate to contact me via the contact button on top. I will do my very best to keep this site fully legal.

Get our toolbar!

 

1939 LYRIC THEATRE New York PHOTO
$5.83
1939 LYRIC THEATRE New York PHOTO picture


Star Spangled Banner or Marines Hymn lyrics signed by WWII Charles W. Lindberg
$10.0
Star Spangled Banner or Marines Hymn lyrics signed by WWII Charles W. Lindberg picture


OLD LARGE HISTORIC PHOTO OF THE LYRIC THEATRE, SYDNEY c1930s, WAR BONDS BOOTH
$7.42
OLD LARGE HISTORIC PHOTO OF THE LYRIC THEATRE, SYDNEY c1930s, WAR BONDS BOOTH picture


SONG OF REVOLUTION CARD SET WITH 13 MOST FAVORED COMMUNIST SONGS LYRICS + NOTES
$24.99
SONG OF REVOLUTION CARD SET WITH 13 MOST FAVORED COMMUNIST SONGS LYRICS + NOTES picture


OLD LARGE HISTORIC PHOTO OF THE LYRIC THEATRE, SYDNEY c1930s, WAR LOANS BOOTH
$7.42
OLD LARGE HISTORIC PHOTO OF THE LYRIC THEATRE, SYDNEY c1930s, WAR LOANS BOOTH picture