Your One-Stop Source For
Music Lyrics
Bass and Guitar Tabs
and More...
Music Lyrics Bass and Guitar Tabs

 

The Tabs Are Below

Learn To Read Tab
Chords Handbook
Corrections & Additions
Get Official Tab
Hoobastank tabs @ 911Tabs

Band: Hoobastank

Song: Never There

Tabber: Alex W.

 

Tuning: Dropped D

 

Opening

-------------------------------------|

-------------------------------------|

-------------------------------------|x2

-0-12p10-0-10h12-0-9h10-0-10p9-X-X-5-|

 

----------------------------------------------------------|

----------------------------------------------------------|

-----8-10------10-12--------------------------------------|x1

-8-8-----10-10--------0-12p10-0-10h12-0-9h10-0-10p9-X-X-5-|

 

Verse part 1

------------------------------------|

------------------------------------|

------------------------------------|x1

-0-12-10h12~-0-12-10h12-8-7-10-12~\-|

 

Verse part 2

-----------------------------------------------|

-----------------------------------------------|

-----------------------------------------------|x1

-0-12-10h12~-0-12-10h12-8-7-10-12~/15-15-15-15-|

 

Chorus part 1

-------------------------------------|

-------------------------------------|

-------------------------------------|x2

-0-12p10-0-10h12-0-9h10-0-10p9-X-X-5-|

 

Chorus part 2

--------------------------------------------------------|

--------------------------------------------------------|

-----8-10------10-12------------------------------------|x1

-8-8-----10-10--------0-12p10-0-10h12-0-9h10-0-10p9-X-X-|

 

Play Chorus part 1 x2

 

Chorus part 3

---------------------------------------|

---------------------------------------|

------8-10------10-12-----6-8-----8-10-|x1

--8-8-----10-10-------6-6-----8-8------|

 

Repeat Verse part 1 x1

 

Repeat Verse part 2 x1

 

Repeat Chorus part 1 x2

 

Repeat Chorus part 2 x1

 

Repeat Chorus part 1 x2

 

Repeat Chorus part 3 x1

 

Breakdown

-----------------------------------------|

-----------------------------------------|

-----------------------------------------|x4

-0-10h12-0-13p12-0-10h12-0-13p12-0-10h12-|

 

Bridge

---------------------------------|

---------------------------------|

---------------------------------|x1

-0-8h10-0-8h10-0-7h9-0-7h9-0-7h9-|

 

--------------------------------------|

--------------------------------------|

--------------------------------------|x1

-0-10h12-0-10h12-0-9h11-0-9h11-0-9h11-|

 

---------------------------------|

---------------------------------|

---------------------------------|x1

-0-8h10-0-8h10-0-7h9-0-7h9-0-7h9-|

 

-----------------------------------------|

-----------------------------------------|

-----------------------------------------|x1

-0-10h12-0-13p12-0-10h12-0-13p12-0-10h12-|

 

---------------------------------|

---------------------------------|

---------------------------------|x1

-0-8h10-0-8h10-0-7h9-0-7h9-0-7h9-|

 

--------------------------------------|

--------------------------------------|

--------------------------------------|x1

-0-10h12-0-10h12-0-9h11-0-9h11-0-9h11-|

 

---------------------------------|

---------------------------------|

---------------------------------|x1

-0-8h10-0-8h10-0-7h9-0-7h9-0-7h9-|

 

-----------------------------------------|

-----------------------------------------|

-----------------------------------------|x3

-0-10h12-0-13p12-0-10h12-0-13p12-0-10h12-|

 

Repeat Chorus part 1 x2

 

Repeat Chorus part 2 x1

 

Repeat Chorus part 1 x2

 

Repeat Chorus part 3 x2

 

Outro

--------------------------|

--------------------------|

--------------------------|x4

-0-12-0-10-0-13-0-12-0-10-|

 

This song is 100% perfect, just work on exact timing.

Have fun!! Please rate!!

 

 

Return to my Hoobastank bass tabs page

The Tablature is Copyright its respective owners.

Sign Up For My Newsletter
Subscribe | Unsubscribe

Site Map | Disclaimer | Privacy Policy | Media Kit | Submissions/Corrections

Website © 2000-2014 mattsmusicpage.com. All rights reserved.

Legal & DMCA: Matt's Music Page has been providing lyrics and tabs in a legal way, paying royalties each year to a few organizations. Then, all lyrics and tabs were removed from the site. Now, there's a new owner to the site, which purchased it August 26, 2014, and he is in negotiation to obtain licensing from BMI at the moment. If you have a specific DMCA request -- please do not hesitate to contact me via the contact button on top. I will do my very best to keep this site fully legal.

Get our toolbar!

 

VINTAGE SORRENTO MUSIC JEWELRY BOX
$45.0
VINTAGE SORRENTO MUSIC JEWELRY BOX picture


VINTAGE LACQUERED MUSIC BOX JAPAN
$25.99
VINTAGE LACQUERED MUSIC BOX JAPAN picture


Vintage Kehlsteinhaus Bavaria Germany Colorscope Cow Bell View Master Music Box
$8.99
Vintage Kehlsteinhaus Bavaria Germany Colorscope Cow Bell View Master Music Box picture


VINTAGE SCHMIDT Signed Collectible Musical Turning Clown
$9.99
VINTAGE  SCHMIDT Signed Collectible Musical Turning Clown picture


Vintage - Linen - Postcard - Stage - Radio City Music Hall - New York City
$3.75
Vintage - Linen - Postcard - Stage - Radio City Music Hall - New York City   picture