Your One-Stop Source For
Music Lyrics
Bass and Guitar Tabs
and More...
Music Lyrics Bass and Guitar Tabs

 

The Tabs Are Below

Learn To Read Tab
Chords Handbook
Corrections & Additions
Get Official Tab
Hoobastank tabs @ 911Tabs

Hoobastank - Losing My Grip

Submitted By: hoobastank_182__

EMail: no_parking182@hotmail.com

 

 

Tuning: Drop D - D A D G

 

Intro: (0:34)

G|----------------------------------------------------------|

D|----------------------------------------------------------|

A|----------------------------------------------------------|

D|--0~-0-00~---000-5~-5-55~-55550~--------------------------|

 

Chorus:

G|----------------------------------------------------------|

D|-------------------------7-6~-----------------------------|

A|--5~--5-7-9-7-5-8~-----5----------5-7-8--10--8-7----10-9--|

D|-------------------------------------------------10-------|

 

G|-------------------------------------------0--------------|

D|--7-5---0---5~----0-7-5~----0-2-3--5-3-2-----4------------|

A|------8---7------------------------------3----------------|

E|----------------------------------------------------------|

 

 

Return to my Hoobastank bass tabs page

The Tablature is Copyright its respective owners.

Sign Up For My Newsletter
Subscribe | Unsubscribe

Site Map | Disclaimer | Privacy Policy | Media Kit | Submissions/Corrections

Website © 2000-2014 mattsmusicpage.com. All rights reserved.

Legal & DMCA: Matt's Music Page has been providing lyrics and tabs in a legal way, paying royalties each year to a few organizations. Then, all lyrics and tabs were removed from the site. Now, there's a new owner to the site, which purchased it August 26, 2014, and he is in negotiation to obtain licensing from BMI at the moment. If you have a specific DMCA request -- please do not hesitate to contact me via the contact button on top. I will do my very best to keep this site fully legal.

Get our toolbar!